VGJam Tabs Final Fantasy VII
Final Fantasy VII
"Costa Del Sol" - Guitar tab
Platform(s):PlayStation
Composed by:Nobuo Uematsu
Soundtrack:Final Fantasy VII Original Sound Track (track D2-16)
Tabbed by:dannyroop
Last modified:2002-10-06
Print it:Original file (.TXT)
Hear it:MIDI file
[TAB COMPILATION:
 Flute Melody
 Main Melody
 Bass]

                                Costa Del Sol                                   


                                                                   Nobuo Uematsu
Flute Melody




E||-------------------|------------------|------------------|------------------|
B||-------------------|------------------|------------------|------------------|
G||*------------------|------------------|------------------|------------------|
D||*------------------|------------------|------------------|------------------|
A||-------------------|------------------|------------------|------------------|
E||-------------------|------------------|------------------|------------------|



------------------|------------------|------------------|------------------|
------------------|------------------|------------------|------------------|
------------------|------------------|------------------|------------------|
------------------|------------------|------------------|------------------|
------------------|------------------|------------------|------------------|
------------------|------------------|------------------|------------------|



------------------|------------------|------------------|------------------|
------------------|------------------|------------------|------------------|
------------------|------------------|------------------|------------------|
------------------|------------------|------------------|------------------|
------------------|------------------|------------------|------------------|
------------------|------------------|------------------|------------------|



------------------|------------------|------------------|------------------|
------------------|------------------|------------------|------------------|
------------------|------------------|------------------|------------------|
------------------|------------------|------------------|------------------|
------------------|------------------|------------------|------------------|
------------------|------------------|------------------|------------------|



------------------|------------------|------------------|------------------|
------------------|------------------|------------------|------------------|
------------------|------------------|------------------|------------------|
------------------|------------------|------------------|------------------|
------------------|------------------|------------------|------------------|
------------------|------------------|------------------|------------------|



------------------|------------------|------------------|------------12----10--|
------------------|------------------|------------------|----------------------|
------------------|------------------|------------------|----------------------|
------------------|------------------|------------------|----------------------|
------------------|------------------|------------------|----------------------|
------------------|------------------|------------------|----------------------|



--12----------------|------------15----13--|--12----------------|
--------------------|----------------------|--------------------|
--------------------|----------------------|--------------------|
--------------------|----------------------|--------------------|
--------------------|----------------------|--------------------|
--------------------|----------------------|--------------------|



------------12----13--|--14----------------|------------17----15--|
----------------------|--------------------|----------------------|
----------------------|--------------------|----------------------|
----------------------|--------------------|----------------------|
----------------------|--------------------|----------------------|
----------------------|--------------------|----------------------|



--14----------------|-------------------||
--------------------|-------------------||
--------------------|------------------*||
--------------------|------------------*||
--------------------|-------------------||
--------------------|-------------------||






                                                                   Nobuo Uematsu
Main Melody




E||-------------------|------------------|------------------|------------------|
B||-------------------|------------------|------------------|------------------|
G||*------------------|------------------|------------------|------------------|
D||*------------------|------------------|------------------|------------------|
A||-------------------|------------------|------------------|------------------|
E||-------------------|------------------|------------------|------------------|



------------------|------------------|------------------|
------------------|------------------|------------------|
------------------|------------------|------------------|
------------------|------------------|------------------|
------------------|------------------|------------------|
------------------|------------------|------------------|



----------------12--10--|-----------------------|----------------------|
------------13----------|----------------9--10--|---------------8--10--|
------------------------|------------12---------|------------9---------|
------------------------|-----------------------|----------------------|
------------------------|-----------------------|----------------------|
------------------------|-----------------------|----------------------|



-----------------8----10--|------------------8--7--|--6-------------------|
------10--8--10-----------|----10--------10--------|-------------6--7--8--|
--------------------------|------------------------|----------------------|
--------------------------|------------------------|----------------------|
--------------------------|------------------------|----------------------|
--------------------------|------------------------|----------------------|



---------------5--6--|----5--6--8--10--13----12--|----------------12--10--|
------------8--------|---------------------------|------------13----------|
---------------------|---------------------------|------------------------|
---------------------|---------------------------|------------------------|
---------------------|---------------------------|------------------------|
---------------------|---------------------------|------------------------|



-----------------------|----------------------|-----------------8----10--|
----------------9--10--|---------------8--10--|------10--8--10-----------|
------------12---------|------------9---------|--------------------------|
-----------------------|----------------------|--------------------------|
-----------------------|----------------------|--------------------------|
-----------------------|----------------------|--------------------------|



------------------8--7--|--6-------------------|---------------5--6--|
----10--------10--------|-------------6--7--8--|------------8--------|
------------------------|----------------------|---------------------|
------------------------|----------------------|---------------------|
------------------------|----------------------|---------------------|
------------------------|----------------------|---------------------|



----5--6--8--10--13----12--|------------------|------------------|
---------------------------|------------------|------------------|
---------------------------|------------------|------------------|
---------------------------|------------------|------------------|
---------------------------|------------------|------------------|
---------------------------|------------------|------------------|


   let ring................                      .......................
--10----------------------|------------------|--10----------------------|
------11--10--------------|------------------|------11--10--------------|
--------------10----------|------------------|--------------10----------|
--------------------------|------------------|--------------------------|
--------------------------|------------------|--------------------------|
--------------------------|------------------|--------------------------|


                      ...................
------------------|--9--------------------|------------------|
------------------|-----10--8-------------|------------------|
------------------|------------9----------|------------------|
------------------|-----------------------|------------------|
------------------|-----------------------|------------------|
------------------|-----------------------|------------------|



--9---------------------||
-----10--8--------------||
------------9----------*||
-----------------------*||
------------------------||
------------------------||



                                                                   Nobuo Uematsu
Bass




E||-------|------|------|------|----------------------|-----------------------|
B||-------|------|------|------|----------------------|-----------------------|
G||*------|------|------|------|----------------------|-----------------------|
D||*------|------|------|------|----------------------|--0------0-------------|
A||-------|------|------|------|--0------0--0------0--|-----------------------|
E||-------|------|------|------|----------------------|--------------2--3--4--|



----------------------|----------------------|----------------------|
----------------------|----------------------|----------------------|
----------------------|----------------------|----------------------|
----------------------|--0------0----0----0--|----------------------|
--0------0--0------0--|----------------------|--0------0--0------0--|
----------------------|----------------------|----------------------|



-----------------------|----------------------|-----------------------|
-----------------------|----------------------|-----------------------|
-----------------------|----------------------|-----------------------|
--0------0-------------|----------------------|--0------0--0----------|
-----------------------|--0------0--0------0--|-----------------0-----|
--------------2--3--4--|----------------------|--------------------4--|



----------------------|-----------------------|----------------------|
----------------------|-----------------------|----------------------|
----------------------|-----------------------|----------------------|
----------------------|-----------------------|----------------------|
----------------------|--3------3-------------|----------------------|
--3------3--3------3--|--------------0--1--2--|--3------3--3------3--|



----------------------|----------------------|-----------------------|
----------------------|----------------------|-----------------------|
----------------------|----------------------|-----------------------|
----------------------|----------------------|--0------0-------------|
--3------3--3----1----|--0------0--0------0--|-----------------------|
----------------------|----------------------|--------------2--3--4--|



----------------------|-----------------------|----------------------|
----------------------|-----------------------|----------------------|
----------------------|-----------------------|----------------------|
----------------------|--0------0--0----------|----------------------|
--0------0--0------0--|-----------------0-----|----------------------|
----------------------|--------------------4--|--3------3--3------3--|



-----------------------|----------------------|----------------------|
-----------------------|----------------------|----------------------|
-----------------------|----------------------|----------------------|
-----------------------|----------------------|----------------------|
--3------3-------------|----------------------|--3------3--3---------|
--------------0--1--2--|--3------3--3------3--|-----------------3----|



----------------------|----------------------|----------------------|
----------------------|----------------------|----------------------|
----------------------|----------------------|----------------------|
----------------------|----------------------|----------------------|
----------------------|--1------1--1------1--|----------------------|
--1------1--1------1--|----------------------|--1------1--1------1--|



----------------------|----------------------|----------------------|
----------------------|----------------------|----------------------|
----------------------|----------------------|----------------------|
----------------------|----------------------|----------------------|
--1------1--1------1--|----------------------|--0------0--0------0--|
----------------------|--3------3--3------3--|----------------------|



----------------------|---------------------||
----------------------|---------------------||
----------------------|--------------------*||
----------------------|--------------------*||
----------------------|--0------0-----------||
--3------3--3------3--|---------------------||


VGJam Tabs Final Fantasy VII - "Costa Del Sol"
Tabs database last modified Tuesday, 01-Nov-2016 19:14:53 UTC.
Copyright © 1999 - 2016 VideoGameJam.com. All rights reserved.