VGJam Tabs Final Fantasy VII
Final Fantasy VII
"Sandy Badlands" - Guitar tab
Platform(s):PlayStation
Composed by:Nobuo Uematsu
Soundtrack:Final Fantasy VII Original Sound Track (track D2-21)
Tabbed by:Tang
Last modified:2002-07-01
Print it:Original file (.TXT)
Hear it:MIDI file
Sandy Badlands
Game: Final Fantasy VII
Composed by: Nobuo Uematsu
Transcribed by: Tang (fot@tm.net.my)
Time Signature: 3/4
Album: Final Fantasy VII OST (Disc 2 - Track 21)

I created this tab using Guitar pro 3. If you have the program and
you want the gp3 version, contact me (fot@tm.net.my) and I'll 
send it to you. The gp3 version has all the complete instruments
as well. You can play this song while hearing the midi or the
soundtrack (Disc 2, track no.21). Enjoy!


Acoustic Steel Guitar


E||------------3------|------------------|
B||---------3---------|-----------6------|
G||*-----3------------|--------5---------|
D||*--5---------------|-----7------------|
A||-------------------|--5---------------|  x6
E||-------------------|------------------|



------------------|------------------|-----------3------|------------------|
-----------4------|-----------6------|--------3---------|-----------6------|
--------3---------|--------5---------|-----3------------|--------5---------|
-----5------------|-----7------------|--5---------------|-----6------------|
--3---------------|--5---------------|------------------|--5---------------|
------------------|------------------|------------------|------------------|



-----------3------|-------------------||
--------3---------|-----------4-------||
-----3------------|--------5---------*||
--5---------------|-----6------------*||
------------------|--5----------------||
------------------|-------------------||

* repeat

VGJam Tabs Final Fantasy VII - "Sandy Badlands"
Tabs database last modified Monday, 21-Jul-2014 21:11:05 CDT.
Copyright © 1999 - 2014 VideoGameJam.com. All rights reserved.