VGJam Tabs Final Fantasy VII
Final Fantasy VII
"Descendant of Shinobi" - Guitar tab
Platform(s):PlayStation
Composed by:Nobuo Uematsu
Soundtrack:Final Fantasy VII Original Sound Track (track D3-04)
Tabbed by:Bad Ash
Last modified:1999-05-06
Print it:Original file (.TXT)
Hear it:MIDI file
Final Fantasy 7: Yuffie's Theme
Tabbed by Michael "Bad Ash" Thompson (badash@erols.com)

Feel free to mail me any suggestions or corrections. (Preferably not something like,
"That Biotch is gonna die fer what she's done!!", which, admittedly, is what
_I_ would say. (: )


                             Repeat
----------10------------------|
-8-10-12-----12-13-12-8-10-12-|
------------------------------|
------------------------------|
------------------------------|
------------------------------|


-15-14-12-12-14-12--------------5-7|-15-14-12-12-14-12----------12-----------|-7----|
-------------------15-12--8-5-8----|-------------------15-12-12----12-10-8-10|---7-8|
-----------------------------------|-----------------------------------------|------|
-----------------------------------|-----------------------------------------|------|
-----------------------------------|-----------------------------------------|------|
-----------------------------------|-----------------------------------------|------|


---7-10-12-12-----------10----7-10-12-12-----------10|---7-10-12-12-14-12-11-12-14-15|
-8------------13-10-12------8------------13-10-H12---|-8-----------------------------|
-----------------------------------------------------|-------------------------------|
-----------------------------------------------------|-------------------------------|
-----------------------------------------------------|-------------------------------|
-----------------------------------------------------|-------------------------------|


----------------------|
-12-10-8--13-12-7-10-8|
----------------------|
----------------------|
----------------------|
----------------------|

Repeat until she tricks you and runs away. (:
VGJam Tabs Final Fantasy VII - "Descendant of Shinobi"
Tabs database last modified Tuesday, 01-Nov-2016 19:14:53 UTC.
Copyright © 1999 - 2016 VideoGameJam.com. All rights reserved.