VGJam Tabs Final Fantasy VII
Final Fantasy VII
"Descendant of Shinobi" - Guitar tab
Platform(s):PlayStation
Composed by:Nobuo Uematsu
Soundtrack:Final Fantasy VII Original Sound Track (track D3-04)
Tabbed by:Tang
Last modified:2002-07-01
Print it:Original file (.TXT)
Hear it:MIDI file
Descendent of Shinobi (Yuffie's Theme)
Game: Final Fantasy VII
Composed by: Nobuo Uematsu
Transcribed by: Tang (fot@tm.net.my)
Time Signature: 4/4
Album: Final Fantasy VII OST (Disc 3 - Track 4)

This is one of the coolest music in FF7 (Yuffie's Theme)! I
can't find any tab for this one so here it is! I created 
this tab using Guitar pro 3. If you have the program and you 
want the gp3 version, contact me (fot@tm.net.my) and I'll 
send it to you. The gp3 version has all the complete instruments
as well. You can play this song while hearing the midi or the
soundtrack (Disc 3, track no.4). Enjoy!


Acoustic Steel Guitar


E||--------3-----------3-----|--------3-----------3-----|
B||--------1-----------0-----|--------1-----------0-----|
G||------0-----0-----0-----0-|------2-----2-----0-----0-|
D||--------------------------|--------------------------|
A||--------------2-----------|--0-----------2-----------|
E||--3-----------------------|--------------------------|



--------3-----------3-----|--------3-----------3-----|
--------1-----------0-----|--------1-----------0-----|
------0-----0-----0-----0-|------2-----2-----0-----0-|
--------------------------|--------------------------|
--------------2-----------|--0-----------2-----------|
--3-----------------------|--------------------------|



|---------3-----------3-----|--------0-----------0-----|
|---------0-----------0-----|--------1-----------1-----|
|*------0-----0-----0-----0-|------0-----0-----0-----0-|
|*--------------0-----------|--------------------------|
|---------------------------|--3-----------------------|
|---3-----------------------|--------------3-----------|



--------3-----------3-----|--------3-----------3-----|
--------0-----------0-----|--------0-----------0-----|
------0-----0-----0-----0-|------0-----0-----0-----0-|
--------------------------|--------------0-----------|
--2-----------------------|--2-----------------------|
--------------3-----------|--------------------------|



--------3-----------3-----|--------0-----------0-----|
--------0-----------0-----|--------1-----------1-----|
------0-----0-----0-----0-|------0-----0-----0-----0-|
--------------0-----------|--------------------------|
--------------------------|--3-----------------------|
--3-----------------------|--------------3-----------|



--------2-----------2-----|--------2-----------2-----|
--------3-----------3-----|--------3-----------3-----|
------4-----4-----4-----4-|------4-----4-----4-----4-|
--------------------------|--------------4-----------|
--2-----------------------|--2-----------------------|
--------------2-----------|--------------------------|



--------0-----------0-----|--------3-----------3-----|
--------1-----------1-----|--------0-----------0-----|
------0-----0-----0-----0-|------0-----0-----0-----0-|
--------------2-----------|--0-----------------------|
--3-----------------------|--------------------------|
--------------------------|--------------3-----------|



--------0-----------0-----|--------3-----------3-----|
--------1-----------1-----|--------0-----------0-----|
------0-----0-----0-----0-|------0-----0-----0-----0-|
--------------2-----------|--0-----------------------|
--3-----------------------|--------------------------|
--------------------------|--------------3-----------|



--------0-----------0-----|--------2-----------2-----|
--------1-----------1-----|--------3-----------3-----|
------0-----0-----0-----0-|------4-----4-----4-----4-|
--------------2-----------|--4-----------------------|
--3-----------------------|--------------2-----------|
--------------------------|--------------------------|



--------0-----------0-----|--------3----2----------|--------3-----------3-----|
--------1-----------1-----|--------1----1----------|--------0-----------0-----|
------2-----2-----2-----2-|------0-----------------|------0-----0-----0-----0-|
--0-----------------------|--0---------------------|--------------0-----------|
--------------------------|------------------------|--------------------------|
--------------0-----------|------------------------|--3-----------------------|



--------3-----------3-----|--------0-----------2-----|
--------0-----------0-----|--------1-----------1-----|
------0-----0-----0-----0-|------0-----0-----2-----2-|
--------------0-----------|--------------0-----------|
--------------------------|--3-----------------------|
--3-----------------------|--------------------------|



--------3-----------3-----|--------0-----------2-----|
--------0-----------0-----|--------1-----------1-----|
------0-----0-----0-----0-|------0-----0-----2-----2-|
--------------------------|--------------0-----------|
--------------2-----------|--3-----------------------|
--3-----------------------|--------------------------|




--------3-----------3-----|--------0-----------2-----|--------2----0----------|
--------0-----------0-----|--------1-----------1-----|--------0----0----------|
------0-----0-----0-----0-|------0-----0-----2-----2-|------2------0----------|
--------------------------|--------------0-----------|------------------------|
--------------2-----------|--3-----------------------|--2---------------------|
--3-----------------------|--------------------------|-------------0----------|




------------------|--------0-----------0-----|--------0-----------2-----|
------------------|--------1-----------1-----|--------1-----------1-----|
------------------|------0-----0-----0-----0-|------0-----0-----2-----2-|
------------------|--------------------------|--------------0-----------|
------------------|--3-----------------------|--0-----------------------|
------------------|--------------3-----------|--------------------------|



--------3-----------3-----|--------3-----------3-----|
--------1-----------0-----|--------1-----------0-----|
------0-----0-----0-----0-|------2-----2-----0-----0-|
--------------------------|--------------------------|
--------------2-----------|--0-----------2-----------|
--3-----------------------|--------------------------|



--------3-----------3-----|--------3-----------3------||
--------1-----------0-----|--------1-----------0------||
------0-----0-----0-----0-|------2-----2-----0-----0-*||
--------------------------|--------------------------*||
--------------2-----------|--0-----------2------------||
--3-----------------------|---------------------------||


* repeat

VGJam Tabs Final Fantasy VII - "Descendant of Shinobi"
Tabs database last modified Tuesday, 01-Nov-2016 19:14:53 UTC.
Copyright © 1999 - 2016 VideoGameJam.com. All rights reserved.