VGJam Tabs Guilty Gear X
Guilty Gear X
"Holy Orders" - Guitar tab
Platform(s):PlayStation 2
Composed by:Daisuke Ishiwatari
Tabbed by:ricknapalm
Last modified:2001-10-06
Print it:Original file (.TXT)
Holy Orders

Correction, feedback, questions, requests at Ricknapalm@hotmail.com

This time around there are 2 guitars, so think of the guitar that does the 

solos and high notes as guitar-1one and the lower notes is guitar 2.

Guitar-1one
--------------------------------------------------------------------
8-0-7-0-5-0-10-0-8-0-4-0-8-0-7-0-------------12-0-10-0-8-0-7-0------
--------------------------------------------------------------------
---------------------------------------7--9-------------------------
--------------------------------7-9-10--7--7------------------------
--------------------------------------------------------------------

Guitar 2
--------------------------------------------------------------------
--------------------------------------------------------------------
--------------------------------------------------------------------
--------------------------------------------------------------------
2-2-2---------------------------------------------------------------
0-0-0---------------------------------------------------------------

G1
--------------------------------8--------8-8---------------12---11-12---
10-8-7-8-12-10-8-10-10-12-10-12--12-10-8----------------------12--------
---------------------------------------------11-9-9-11-9-11-------------
------------------------------------------------------------------------
------------------------------------------------------------------------
------------------------------------------------------------------------

G2
------------------------------------------------------------------------
------------------------------------------------------------------------
------------------------------------------------------------------------
------------------------------------------------------------------------
3-2-------2-------------------------------------------------------------
----4-5-3---------------------------------------------------------------

G1
------------------------------------------------------------------------
8-0-7-0-5-0--10-0-8-0-5-0-8-0-7-0--8-0-7-0-5-0-10-0-8-0-5-0-13-0-12-0---
------------------------------------------------------------------------
------------------------------------------------------------------------
------------------------------------------------------------------------
------------------------------------------------------------------------

G2
------------------------------------------------------------------------
------------------------------------------------------------------------
------------------------------------------------------------------------
------------------------------------------------------------------------
-5v7-----5v7------------------------------------------------------------
----0000----...---------------------------------------------------------
v is for hammer-on

Guitar one
The best part
------------------------------------------------------------------------
------------------------------------------------------------------------
--9--12-11-9-8-9-11-8--------------------------------8-7----------------
/9-/9-----------------9-10-9--------7--------------------9-8------------
--------------------------------9-10-9-10-9-7-6-7-10--------------------
-----------------------------------------------7------------------------

G2
------------------------------------------------------------------------
------------------------------------------------------------------------
------------------------------------------------------------------------
------------------------------------------------------------------------
77...-6...-10-----------------------------------------------------------
-----------8-88...7...-55-8-7-5-3-2-0-----------------------------------

G1
------------------------------------------------------------------------
-------------8-9-8-9-9-12-12*-12*-13-12-10------------------------------
--9----11--9--------9---------------------12-11-8-9---------------------
/9--/9---/9-------------------------------------------------------------
------------------------------------------------------------------------
------------------------------------------------------------------------
* means bend (yeah I know my symbols are dumb).

G2
------------------------------------------------------------------------
------------------------------------------------------------------------
------------------------------------------------------------------------
------------------------------------------------------------------------
2-4-5-5-7-9-2-2-5-2-----------------------------------------------------
0-2-3-4-5-7-0-0-3-0-----------------------------------------------------

1 & 2
------------------------------------------------------------------------
------------------------------------------------------------------------
------------------------------------------------------------------------
-----------------------2-----------------------1-0-1-4-1----------------
3-5--------------2----2-----3-5--------------2--------------------------
----0-3-0-5-0-3-2--0-3----------0-3-0-5-0-3-2---------------------------

G1 solo (I'm missing the little riff between this and the previous part)
---14-12-15-14-12---------------------------------------10------------------------
12----------------15-13--------------------------10-12-----13-12-10---10---10/12--
------------------------11-12-11-9-------12-11-12-----11------------12--12--------
-----------------------------------12---------------------------------------------
-------------------------------------10-------------------------------------------
----------------------------------------------------------------------------------
solo (cont)
14-12-15-22-20-19---------------20-19-19----------20-19-20-19-----------
------------------20-19-20-19------------20-19---------------22-20------
-----------------------------21----------------21------------------20-21
------------------------------------------------------------------------
------------------------------------------------------------------------
------------------------------------------------------------------------

Guitar 2 (part you play during the solo)
------------------------------------------------------------------------
------------------------------------------------------------------------
------------------------------------------------------------------------
-------------7-------5---7-----------4----------------------------------
2-------7----55..5---3..-55..-5----4-2----------------------------------
000...--55..-----33..---------33..-2------------------------------------

Guitar 2
------------------------------------------------------------------------
------------------------------------------------------------------------
------------------------------------------------------------------------
---------7--------5-----------------------------------------------------
2----7---55..-5---33..4----2-5-4----------------------------------------
00..-55..-----33..----22..-0-3-2----------------------------------------

That's it!

VGJam Tabs Guilty Gear X - "Holy Orders"
Tabs database last modified Tuesday, 01-Nov-2016 19:14:53 UTC.
Copyright © 1999 - 2016 VideoGameJam.com. All rights reserved.