VGJam Tabs Final Fantasy VII
Final Fantasy VII
"The Nightmare Begins" - Guitar tab
Platform(s):PlayStation
Composed by:Nobuo Uematsu
Soundtrack:Final Fantasy VII Original Sound Track (track D3-06)
Tabbed by:dereklearnslow
Last modified:2002-09-02
Print it:Original file (.TXT)
Hear it:MIDI file
Game: Final Fantasy VII (PS1)
Song: CD 3  Track 06 - The Nightmare begins (Vincent's Theme)
Composer: Nobuo Uematsu
Tabbed by: dereklearnslow@yahoo.com

Tuning : E B D G B E (note: tune 5th string to B)    


A:
|--------1--------1--------3--------1-------1---------------------|
|---2----------2--------2--------2-------2----------2-------------|
|------2----2--------2--------2-------2----------2----------------|
|-0---------------------------------------------------------------|
|-----------------------------------------------------------------|
|-----------------------------------------------------------------|


|--------1--------1--------3--------1-------1---------------------|
|---1----------1--------1--------1-------1----------1-------------|
|------2----2--------2--------2-------2----------2----------------|
|-0---------------------------------------------------------------|
|-----------------------------------------------------------------|
|-----------------------------------------------------------------|


|--------1--------1--------3--------1-------1---------------------|
|---0----------0--------0--------0-------0----------0-------------|
|------2----2--------2--------2-------2----------2----------------|
|-0---------------------------------------------------------------|
|-----------------------------------------------------------------|
|-----------------------------------------------------------------| End A.


|----------3-------1-------0--------1--------3--------------------|
|-----------------------------------------------------------------|
|----3--2----2--3----2--3-----2--3-----2--3-----2--3--------------|
|-0---------------------------------------------------------------|
|-----------------------------------------------------------------|
|-----------------------------------------------------------------|


(Repeat A)


|--0-~~~~~~~~~~~~~~~~~~~~~~~~~~~~~~~~~~~~-------------------------|
|--5-~~~~~~~~~~~~~~~~~~~~~~~~~~~~~~~~~~~~-------------------------|
|--3-~~~~~~~~~~~~~~~~~~~~~~~~~~~~~~~~~~~~-------------------------|
|--0-~~~~~~~~~~~~~~~~~~~~~~~~~~~~~~~~~~~~-------------------------|
|-----------------------------------------------------------------|
|-----------------------------------------------------------------|


B:
|-----------------------------------------------------------------|
|-----------------------------------------------------------------|
|-------5--6--5-----6--5-----------4--6--4-----6--4---------------|
|-0--4-----------4--------4--0--4-----------4--------4------------|
|-----------------------------------------------------------------|
|-----------------------------------------------------------------|


|-----------------------------------------------------------------|
|-----------------------------------------------------------------|
|-------3--6--3-----6--3-----------4--6--4-----6--4---------------|
|-0--4-----------4--------4--0--4-----------4--------4------------|
|-----------------------------------------------------------------|
|-----------------------------------------------------------------| End B.


(Repeat B)


|-5--------5--------5--------8--------6--------5------------------|
|-----------------------------------------------------------------|
|-----------------------------------------------------------------|
|-0--7--------7--------7--------7--------7--------7---------------|
|-------7--------7--------7--------7--------7--------7------------|
|-----------------------------------------------------------------|


|-3--------3--------3--------3--------3-------3-------------------|
|----3--------3--------3--------3--------3-------3----------------|
|-------3--------3--------3--------3--------3-------3-------------|
|-5---------------------------------------------------------------|
|-----------------------------------------------------------------|
|----------------------------3------------------------------------|


|-3--------3--------3--------6--------5--------3------------------|
|----2--------2--------2--------5--------5--------5---------------|
|-------3--------3--------3--------6--------6--------6------------|
|-----------------------------------------------------------------|
|-2--------------------------5------------------------------------|
|-----------------------------------------------------------------|


|-1--------1--------1--------1--------1--------1------------------|
|----3--------3--------3--------3--------3--------3---------------|
|-------2--------2--------2--------2--------2--------2------------|
|-0---------------------------------------------------------------|
|-----------------------------------------------------------------|
|-----------------------------------------------------------------|


|-5--------5--------5--------8--------6--------5------------------|
|-----------------------------------------------------------------|
|-----------------------------------------------------------------|
|-0--7--------7--------7--------7--------7--------7---------------|
|-------7--------7--------7--------7--------7--------7------------|
|-----------------------------------------------------------------|


|-3--------3--------3--------6--------5--------3------------------|
|----3--------3--------3--------5--------5--------5---------------|
|-------3--------3--------3--------7--------7--------7------------|
|-0---------------------------------------------------------------|
|-----------------------------------------------------------------|
|----------------------------5------------------------------------|


|-1--------1--------1--------1--------3--------4------------------|
|-------------------------------1--0-----2--------3--0------------|
|----2--3-----2--3-----2--3-----------------3---------------------|
|-0--------------------------0--------0--------2------------------|
|-----------------------------------------------------------------|
|-----------------------------------------------------------------|


|-5--------5--------5~~~~~~~~~~~~~~~~~~~~~~~~~~~~~~~~~~~~~~~~~~~--|
|----5--------5---------------------------------------------------|
|-------6--------6------------------------------------------------|
|-----------------------------------------------------------------|
|-----------------------------------------------------------------|
|-5---------------------------------------------------------------|


(repeat all and you have yourself another Uematsu materpiece!)

VGJam Tabs Final Fantasy VII - "The Nightmare Begins"
Tabs database last modified Tuesday, 01-Nov-2016 19:14:53 UTC.
Copyright © 1999 - 2016 VideoGameJam.com. All rights reserved.