VGJam Tabs Final Fantasy VII
Final Fantasy VII
"Forested Temple" - Guitar tab
Platform(s):PlayStation
Composed by:Nobuo Uematsu
Soundtrack:Final Fantasy VII Original Sound Track (track D3-17)
Tabbed by:Tang
Last modified:2002-07-01
Print it:Original file (.TXT)
Forested Temple
Game: Final Fantasy VII
Composed by: Nobuo Uematsu
Transcribed by: Tang (fot@tm.net.my)
Time Signature: 4/4
Album: Final Fantasy VII OST (Disc 3 - Track 17)

I created this tab using Guitar pro 3. If you have the program and you 

want the gp3 version, contact me (fot@tm.net.my) and I'll 
send it to you. 
The gp3 version has all the complete instruments
as well. You can play this song while hearing the midi or the
soundtrack (Disc 3, track no.17). Enjoy!



Acoustic Steel Guitar


E||--------------------------|--------------------------|
B||-----------0-----------1--|-----------2-----------1--|
G||--------0-----------0-----|--------0-----------0-----|
D||-----2-----------2--------|-----2-----------2--------|
A||--------------------------|--------------------------|  x2
E||--0-----------0-----------|--0-----------0-----------|



--------------------------|--------------------------|
-----------1-----------1--|-----------1-----------1--|
--------2-----------2-----|--------2-----------2-----|
-----2-----------3--------|-----4-----------3--------|
--0-----------0-----------|--0-----------0-----------|  x8
--------------------------|--------------------------|



--------------------------|--------------------------|
-----------0-----------0--|-----------0-----------0--|
--------0-----------0-----|--------0-----------0-----|
-----0-----------2--------|-----4-----------2--------|
--------------------------|--------------------------|
--3-----------3-----------|--3-----------3-----------|



-----------2-----------2--|-----------2-----------2--|
--------3-----------3-----|--------3-----------3-----|
-----2-----------3--------|-----4-----------3--------|
--0-----------0-----------|--0-----------0-----------|
--------------------------|--------------------------|  x2
--------------------------|--------------------------|



--------------------------|--------------------------|
-----------0-----------0--|-----------0-----------0--|
--------0-----------0-----|--------0-----------0-----|
-----0-----------2--------|-----4-----------2--------|
--------------------------|--------------------------|
--3-----------3-----------|--3-----------3-----------|



-----------1-----------1--|-----------1-----------1--|
--------3-----------3-----|--------3-----------3-----|
-----2-----------3--------|-----4-----------3--------|
--0-----------0-----------|--0-----------0-----------|
--------------------------|--------------------------|  x4
--------------------------|--------------------------| 


VGJam Tabs Final Fantasy VII - "Forested Temple"
Tabs database last modified Tuesday, 01-Nov-2016 19:14:53 UTC.
Copyright © 1999 - 2016 VideoGameJam.com. All rights reserved.