VGJam Tabs Final Fantasy VII
Final Fantasy VII
"On the Other Side of the Mountain" - Guitar tab
Platform(s):PlayStation
Composed by:Nobuo Uematsu
Soundtrack:Final Fantasy VII Original Sound Track (track D4-07)
Tabbed by:Tang
Last modified:2002-07-01
Print it:Original file (.TXT)
Hear it:MIDI file
On the Other Side of the Mountain 
Game: Final Fantasy VII
Composed by: Nobuo Uematsu
Transcribed by: Tang (fot@tm.net.my)
Time Signature: 4/4
Album: Final Fantasy VII OST (Disc 4 - Track 7)


This is a guitar solo music from FF7. I found that it is quite similar
to Lagrima composed by Francisco Tarrega. If you don't know who's Tarrega,
he's the greatest composer for classical guitar. So, if you can play Lagrima
well, I think it shouldn't be a problem to play this song. I created this 
tab using Guitar pro 3. If you have the program and you want the gp3 version, 
contact me (fot@tm.net.my) and I'll send it to you. Enjoy!



Acoustic Nylon/Steel Guitar


E||---4-----2-----0-----|-----------0---------||---------------0-----|
B||------0-----0-----0--|--4-----4-----4------||---2-----4--------0--|
G||*--------------------|-----4-----------4--*||*-----2-----4--------|
D||*--2-----1-----------|--------------------*||*--------------------|
A||---------------4-----|--2------------------||---0-----2-----4-----|
E||---------------------|---------------------||---------------------|



-----------0---------||---4-----2-----0-----|-----------0---------||
--4-----4-----4------||------0-----0-----0--|--4-----4-----4------||
-----4-----------4--*||*--------------------|-----4-----------4--*||
--------------------*||*--2-----1-----------|--------------------*||
--2------------------||---------------4-----|--2------------------||
---------------------||---------------------|---------------------||



--4-----2-----7-----|--0-----------0--2--|--4-----------2-----|
-----0-----0-----0--|-----2-----2--------|-----0-----0-----0--|
--------------------|--------2-----------|--------2-----------|
--2-----1-----6-----|--------------------|--------------------|
--------------------|--0-----------------|--2-----------2-----|
--------------------|--------------------|--------------------|



--0----------------||---3-----5-----7-----|--2-----------------||
-----0-----0-------||------0-----0-----0--|-----0-----0--------||
--------1----------||*--------------------|--------2----------*||
--------------2----||*--2-----4-----5-----|--1----------------*||
-------------------||---------------------|--------------2-----||
--0----------------||---------------------|--------------------||



--3-----5-----7-----|--10-----8-----7------|--3----5----6----|
-----0-----0-----0--|------------------10--|--5--------------|
--------------------|------9-----9---------|-------7----5----|
--2-----4-----5-----|--7-------------------|-----------------|
--------------------|----------------------|--3----5----7----|
--------------------|----------------------|-----------------|



--7-----------------||---3-----5-----7-----|--2-----------------||
-----0-----0-----0--||------0-----0-----0--|-----0-----0--------||
--------5-----------||*--------------------|--------2----------*||
--------------7-----||*--2-----4-----5-----|--1----------------*||
--6-----------------||---------------------|--------------2-----||
--------------------||---------------------|--------------------||



--3-----5-----7-----|--8-----7-----------|--3-----------2-----|
-----0-----0-----0--|-------------10-----|-----0-----0-----0--|
--------------------|-----9-----------9--|--------2-----------|
--2-----4-----5-----|--7-----------------|--------------------|
--------------------|--------0-----------|--2-----------------|
--------------------|--------------------|--------------------|



--0----------------||
-----0-----0-------||
--------1----------||
--------------2----||
-------------------||
--0----------------||


* repeat

VGJam Tabs Final Fantasy VII - "On the Other Side of the Mountain"
Tabs database last modified Tuesday, 01-Nov-2016 19:14:53 UTC.
Copyright © 1999 - 2016 VideoGameJam.com. All rights reserved.