VGJam Tabs Final Fantasy VII
Final Fantasy VII
"Sending a Dream into the Universe" - Guitar tab
Platform(s):PlayStation
Composed by:Nobuo Uematsu
Soundtrack:Final Fantasy VII Original Sound Track (track D4-09)
Tabbed by:Tang
Last modified:2002-07-01
Print it:Original file (.TXT)
Hear it:MIDI file
Sending a Dream Into the Universe (Sheila's Theme)
Game: Final Fantasy VII
Composed by: Nobuo Uematsu
Transcribed by: Tang (fot@tm.net.my)
Time Signature: 4/4
Album: Final Fantasy VII OST (Disc 4 - Track 9)


This is Sheila's theme, it's slow and sad. I created this 
tab using Guitar pro 3. If you have the program and you 
want the gp3 version, contact me (fot@tm.net.my) and I'll 
send it to you. The gp3 version has all the complete 
instruments as well. You can play this song while hearing the midi or the
soundtrack (Disc 4, track no.9). Enjoy!



Classical Guitar


E||-----------3--------|-----------3--------|-----------3--------|
B||--1-----------------|--3-----------------|--4-----------------|
G||--0-----------------|--3-----------------|--5-----------------|
D||--1-----------------|--3-----------------|--6-----------------|
A||--------------------|--------------------|--------------------|
E||--------------------|--------------------|--------------------|



-----------3--------|-----------3--------|-----------6--------|
--3-----------------|--4-----------------|--6-----------------|
--3-----------------|--3-----------------|--7-----------------|
--3-----------------|--5-----------------|--8-----------------|
--------------------|--------------------|--------------------|
--------------------|--------------------|--------------------|



--4-------------1----|--3----------------||------------3----1----|
--4--------4---------|--0----------------||---1------------------|
--5--------1---------|--0----------------||*--0------------------|
--6--------3---------|-------------------||*--1------------------|
---------------------|-------------------||----------------------|
---------------------|-------------------||----------------------|



--3--------3----5----|--6--------3---------|------------------|
--4------------------|--3-------------3----|------------------|
--3------------------|--3------------------|------------------|
--5------------------|--5------------------|------------------|
---------------------|---------------------|------------------|
---------------------|---------------------|------------------|



----------------------|--5--------5----7----|--8--------5---------|
-----------10----8----|--6------------------|--5-------------5----|
--7-------------------|--5------------------|--5------------------|
--7-------------------|--7------------------|--7------------------|
--8-------------------|---------------------|---------------------|
----------------------|---------------------|---------------------|



----------5---------|--5------7--8------10--|--11------11--10------13--|
---------------8----|--6--------------------|--9-----------------------|
--------------------|--5--------------------|--8-----------------------|
--------------------|-----------------------|--------------------------|
--------------------|-----------------------|--------------------------|
--------------------|-----------------------|--------------------------|



--11------8-----------|------------------|--10------6-----------|
--8----------8--------|------------------|--8----------8--------|
--8-------------------|------------------|--7-------------------|
--10------------------|------------------|----------------------|
----------------------|------------------|----------------------|
----------------------|------------------|----------------------|



---------------4----|--3----------------|--3----------------|
----------6---------|--3----------------|--3----------------|
----------5---------|--5----------------|--4----------------|
----------6---------|--5----------------|--5----------------|
--------------------|-------------------|-------------------|
--------------------|-------------------|-------------------|



--3--------3--------|--3--------3--------|--3--------3--------|
--5--------5--------|--5--------5--------|--4--------4--------|
--5--------5--------|--5--------5--------|--5--------5--------|
--------------------|--------------------|--------------------|
--------------------|--------------------|--------------------|
--------------------|--------------------|--------------------|



--3--------3--------|--6--------6--------|--6--------6--------|
--4--------4--------|--4--------4--------|--4--------4--------|
--5--------5--------|--3--------3--------|--3--------3--------|
--------------------|--------------------|--------------------|
--------------------|--------------------|--------------------|
--------------------|--------------------|--------------------|



--5--------5--------|--5--------5---------||
--6--------6--------|--6--------6---------||
--5--------5--------|--5--------5--------*||
--------------------|--------------------*||
--------------------|---------------------||
--------------------|---------------------||


* repeat

VGJam Tabs Final Fantasy VII - "Sending a Dream into the Universe"
Tabs database last modified Tuesday, 01-Nov-2016 19:14:53 UTC.
Copyright © 1999 - 2016 VideoGameJam.com. All rights reserved.