VGJam Tabs Final Fantasy VII
Final Fantasy VII
"Aerith's theme (rearranged)" - Guitar tab
Platform(s):PlayStation
Composed by:Nobuo Uematsu
Tabbed by:Tang
Last modified:2002-06-22
Print it:Original file (.TXT)
Hear it:MIDI file
Title: Aerith's Theme (Final Fantasy VII)
Composer: Nobuo Uematsu
Album: Final Fantasy VII OST (Disc 3 - Track 19)
Rearranged and tabbed by: Tang
Email: fot@tm.net.my

I searched around the net and can't find a nice tab, so I decided to rearrange
it for guitar from the piano sheet, and it seems quite nice. The time signature
is 4/4, and remember the drop D tuning. I tabbed this song using Guitar 
pro, so if you want the guitar pro version, tell me and I'll send it to you.


Guitar Dropped D
----------------


E||--2--5/-10------------|--8h-5---------------|--2--5/-10--9--12--10--7--9--|
B||--3-------------------|--------5------------|--3--------------------------|
G||--2-------------------|---------------------|--2--------------------------|
D||--0-------------------|--7------------------|--0--------------------------|
A||----------------------|--7------------------|-----------------------------|
D||----------------------|---------------------|-----------------------------|



------------0--------||----------------------|-----------------------|
--10--------1--------||---------3------------|--1--------------------|
---------------------||*-----2---------------|-----2-----------------|
---------------------||*--4------------------|--------2----------0h2-|
--0------------------||----------------------|--0--------------------|
---------------------||---0------------------|-----------------------|



-----------------------|---------------------|-------------------------|
-----------------------|----------------3----|--3----------------------|
-----------------------|-----------3----3----|-------------2--------2--|
--0--------3--2--0--2--|-----------5----5----|----------4--------4-----|
--1--------------------|--5------------------|-------5--------5--------|
-----------------------|---------------------|--0----------------------|



---------------------|------------------0--|--2---------------------|
--3------------------|---------------3-----|-----------3------------|
--2------------------|---------------------|--------4------------0--|
--4------------0h-2--|--4------------------|-----4------------4-----|
--5------------------|---------------------|--2---------------------|
---------------------|---------------------|------------------------|



---------------2--3--|--5---------------------|-----------------------|
---------------------|-----------2------0--2--|--3-----0--------------|
--2------------------|--------2---------------|-----0------------0----|
---------------------|-----4------------------|-----------0-----------|
---------------------|--4---------------------|--------2--------------|
---------------------|------------------------|--0--------------------|



-------------------------|---------------5--2--|--------------9--------|
----0--------------------|---------------------|--2--------2-----------|
--2---2------------2-----|---------------------|--------2--------------|
------------0---------4--|---------------------|-----4-----------------|
---------0---------------|--4------------------|--4--------------------|
--0----------------------|---------------------|-----------------------|



--7/-------5----------|--------------------|----------------------|
----------------0-----|-----------0--------|----------------------|
-------------------2--|--------------------|--2--------0----2-----|
----------------------|--0-----------------|-------------------4--|
----------------------|--------------------|----------------------|
----------------------|--0-----------------|----------------------|



--------------------|----------------------|-------------------|
-----------2--------|--0-------------0--2--|--3----------------|
--------------------|-----------2----------|--4----------------|
--------------------|----------------------|-------------------|
--4-----------------|----------------------|-------------------|
--------------------|----------------------|-------------------|



----------------------|--------------------|----------------------|
-------3----2----0----|--------------------|-------3----2----0----|
-------4----2----0----|--2-----------------|-------4----2----0----|
----------------------|--4--------4--------|------------4----2----|
----------------------|-----------5--------|----------------------|
--0-------------------|--0--------0--------|--5--------------5----|



---------2--2--------|----------------------|--------------------|
--2------2--2--------|-------3----2----0----|--------------------|
--2------2--2--------|-------4----2----0----|--2-----------------|
--4------------------|--4---------4----0----|--2--------2--------|
---------------------|--2-------------------|-----------4--------|
--4------------------|----------------------|--------------------|



----------------3--5--|--7--5--3--10----------|----------7--5--2--3--|
----------------5--7--|--8--7--5--------------|----------8--7--3--5--|
----------------------|-----------------------|----------------------|
----------------------|-----------------------|----------------------|
--2--------0----------|-----------------------|----------------------|
--5-------------------|-----------------------|----------------------|



--2----------------|---------------------|----------------------|
--3----------------|------3----2----0----|----------------------|
-------------------|---------------------|--2-------------------|
--0----------------|---------------------|-----------2------2h4-|
--0----------------|---------------------|----------------------|
--0----------------|---------------------|----------------------|



----------------------|--------------------|--2--5/-10------------|
----------------------|-----------0--------|--3-------------------|
--0-------------------|--0-----------------|--2-------------------|
-----4--2--0----------|--------------------|--0-------------------|
----------------------|--------------------|----------------------|
----------------------|--------------------|----------------------|



--8h-5---------------|--2--5--10--9--12--10--7--9--|------------0---------||
--------5------------|--3--------------------------|--10--------1---------||
---------------------|--2--------------------------|---------------------*||
--7------------------|--0--------------------------|---------------------*||
--7------------------|-----------------------------|--0-------------------||
---------------------|-----------------------------|----------------------||


** repeat as many time as you want

VGJam Tabs Final Fantasy VII - "Aerith's theme (rearranged)"
Tabs database last modified Tuesday, 01-Nov-2016 19:14:53 UTC.
Copyright © 1999 - 2016 VideoGameJam.com. All rights reserved.