VGJam Tabs Final Fantasy VII
Final Fantasy VII
"Aerith's theme (duet)" - Guitar tab
Platform(s):PlayStation
Composed by:Nobuo Uematsu
Tabbed by:Tang
Last modified:2002-12-08
Print it:Original file (.TXT)
Hear it:MIDI file
Title: Aeris' Theme
Game: Final Fantasy VII
Composer: Nobuo Uematsu
Album: Final Fantasy VII OST (Disc 3 - Track 19)
Tabbed by: Tang
Email: fot@tm.net.my
This is Aeris' theme guitar duet version. If you have Guitar pro, then 
you can download the gp3 version of this tab at http://www.mysongbook.com,
or you can send an email to me (fot@tm.net.my), and I'll be happy to 
send it to you. The gp3 version more easy to learn if you are not sure about 
the timing. Contact me (fot@tm.net.my) if you have any problems learning  
this song.

 -----------------
 Guitar 1 (melody)
 -----------------

E||----------10------------|--8-------------------|
B||------10----------------|-----10---------------|
G||--11--------------------|---------9------------|
D||------------------------|----------------------|
A||------------------------|----------------------|
E||------------------------|----------------------|

----------10--9--12--10------9--|---------------------|----------10------------|
------10-----------------12-----|--10-----------------|------10----------------|
--11----------------------------|------------9--------|--11--------------------|
--------------------------------|---------------------|------------------------|
--------------------------------|---------------------|------------------------|
--------------------------------|---------------------|------------------------|

--8---------------------|------------------------------|-----------------------|
-----10-----------------|------------------------------|-----------------------|
---------9----------7h9h|--7----10-9----9-------10--9--|--------------------9--|
------------------------|------------12---12-----------|--12------------12-----|
------------------------|------------------------------|-----------------------|
------------------------|------------------------------|-----------------------|

------------------------|--------------------9--|--10--------------------|
------------------------|--10------------12-----|--12----12--------------|
--11------------11--12--|--11-------------------|--12--------------12----|
--12------------12--12--|--11-------------------|--12--------------------|
------------------------|-----------------------|------------------------|
------------------------|-----------------------|------------------------|

----------------------------|------------------------|------------------------|
--10--12h10---------10------|----------------12--10--|----------------10------|
--11--------------------11--|------------------------|--------------------11--|
--12------------------------|--11--------------------|--12--------------------|
----------------------------|------------------------|------------------------|
----------------------------|------------------------|------------------------|

----------------------------|--10----------10--9-------|
------------------10--12-14-|--12----------12--10--12--|
------------11--------------|--12------------------12--|
--11------------------------|--12----------------------|
----------------------------|--------------------------|
----------------------------|--------------------------|

----------------10--9-------|--9----14-14------10--9-------|
--10------------12--10--12--|--10---10-10------12--10--12--|
--11----11--------------12--|--------------------------12--|
--------12------------------|------------------------------|
----------------------------|------------------------------|
----------------------------|------------------------------|

-------------------------|-----------10---------------------|
--10--------------8--10--|--12-10---------------12-10-------|
--9-----9---------9--11--|--12-11-12------------12-11-11-12-|
--------11---------------|--------14-12---------------12-14-|
-------------------------|----------------------------------|
-------------------------|----------------------------------|

--------------10--9------|------------------------|
---------------------12--|--10--------------------|
--11---------------------|------------9------9-11-|
--12---------------------|------------------------|
-------------------------|------------------------|
-------------------------|------------------------|

-----------------------------|----------10------------||
-----------------------12----|------10----------------||
--12-11-9--------12----------|--11--------------------||
----------12-----------------|------------------------||
-----------------------------|------------------------||
-----------------------------|------------------------||


 ------------------------
 Guitar 2 (accompanyment)
 ------------------------

E||------0----------------|----------------------|------0---------------------|
B||-----------------------|----------------------|-------------------0--------|
G||----2---2--------------|----2--2--------------|----2---2-------------------|
D||--0-------0------------|--2------2------------|--0-------0------4---4------|
A||-----------------------|----------------------|---------------2-------2----|
E||-----------------------|----------------------|----------------------------|

------0--------------------|------2---0-----------2---0-------|
---------------------------|--------------3---------------3---|
----2---2---2--------------|----2---2---2---2---2---2---2---2-|
--2-------2---2------------|--0---------------0---------------|
----------------0----------|----------------------------------|
------------------0--------|----------------------------------|

----------------------------------|-----------------------------|
------1---0-----------1---0-------|---------------------3-------|
--------------2---------------2---|------3------------0----0--0-|
----2---2---2---2---2---2---2---2-|----3---3--------0-----------|
--0---------------0---------------|--1-------1------------------|
----------------------------------|---------------3-------------|

----------5-----1----------|----------------------------------|
------3-6---6-3------------|--------2-3-2-----------2-3-2-----|
----2-------------2--------|------4-------4-------4-------4---|
--0------------------------|----4-----------4---4-----------4-|
---------------------------|--2---------------2---------------|
---------------------------|----------------------------------|

----------------------------------|----------------------------------|
--------0-2-0-----------0-2-0-----|------0-2-3-2-0-------0-2-3-2-0---|
------2-------2-------2-------2---|----------------0---------------0-|
----4-----------4---4-----------4-|----0---------------0-------------|
--4---------------4---------------|----------------------------------|
----------------------------------|--3---------------3---------------|

----------------------------------|----------------------------------|
--------2-3-2-----------2-3-2-----|----------0---------------0-------|
------2-------2-------2-------2---|--------2---2-----------2---2-----|
----4-----------4---4-----------4-|------4-------4-------4-------4---|
--5---------------5---------------|----4-----------4---4-----------4-|
----------------------------------|--2---------------2---------------|

----------------------------------|----------------------------------|
------0-2-3-2-0-------0-2-3-2-0---|----------0---------------0-------|
----------------0---------------0-|--------2---2-----------2---2-----|
----0---------------0-------------|------4-------4-------4-------4---|
----------------------------------|----4-----------4---4-----------4-|
--3---------------3---------------|--2---------------2---------------|

----------------------------------|----------------------------------|
----------0---------------0-------|--------------------------0-------|
------0-------0-------0-------0---|----------2-----------0-------0---|
----0---0---0---0---0---0---0---0-|------4-------4-----0---0---0---0-|
----------------------------------|----5---5---5---5-----------------|
--3---------------3---------------|--2---------------3---------------|

----------------------------------|----------------------------------|
--------------------------0-------|------2---0-----------2---0-------|
----------2-----------0-------0---|--------------2---------------2---|
------4-------4-----0---0---0---0-|----2---2---2---2---2---2---2---2-|
----4---4---4---4-----------------|--0---------------0---------------|
--2---------------3---------------|----------------------------------|

---------------------------|------------------|--0----------------|
----------0----------------|------------------|--2----------------|
------0-------0------------|------------------|--2----------------|
----0---0---0---0----------|------------------|--2----------------|
---------------------------|------------------|--0----------------|
--3---------------3--------|------------------|-------------------|

--3----------------|--2----------------||
--0----------------|--3----------------||
--0----------------|--2----------------||
--0----------------|--0----------------||
--2----------------|-------------------||
--3----------------|-------------------||


VGJam Tabs Final Fantasy VII - "Aerith's theme (duet)"
Tabs database last modified Tuesday, 01-Nov-2016 19:14:53 UTC.
Copyright © 1999 - 2016 VideoGameJam.com. All rights reserved.