VGJam Tabs Guilty Gear X
Guilty Gear X
"Still in the Dark" - Guitar tab
Platform(s):PlayStation 2
Composed by:Daisuke Ishiwatari
Tabbed by:ricknapalm
Last modified:2001-10-06
Print it:Original file (.TXT)
Still in the Dark

Correction, feedback, questions, requests at Ricknapalm@hotmail.com

You'll notice a couple of riffs are missing but overall the song is 
complete, 
I may add the missing riffs later (keyword: may).


Guitar 1
--------------------------------------------------------
--------------------------------------------------------
--------------------------------------------------------
----------7----5----7-----------------------------------
2----5----5----3----5-----------------------------------
0----3--------------------------------------------------

Guitar 2
--------------- -----------------------------------------
---8---7------- -----8---7-8-10--------------------------
9-7--7---9-7--- -9-7---7--------------------------------
--------------- -----------------------------------------
--------------- -----------------------------------------
--------------- -----------------------------------------
You play the part on the right the 3rd or 4th time, I'm not certain.


Guitar 1
--------------------------------------------------------
--------------------------------------------------------
-------------------------------------------------------
----------0-5-0-4-5-7-0-------5-------------------------
------33..--------------------3--5----------------------
00...-------------------00...---------------------------

Guitar 2
--------------------10------------7---------------------
---12-9-7-9------------12-8------8----------------------
/9----------7--------------9-7-9----7-9-----------------
-------------10-9---------------------------------------
--------------------------------------------------------
--------------------------------------------------------

------------------------------------17-14---------------
------8--7---------8--7-------15-12-------15-12-10-12-10
9-7-9---7--9-7-9-7--7---9-7-----------------------------
--------------------------------------------------------
--------------------------------------------------------
--------------------------------------------------------

This is essentially the same riff with minor differences
--------------------10------------7---------------------
---12-9-7-9------------12-8-----------------------------
/9----------7--------------9-7-9-7---7-9----------------
-------------10-9---------------------------------------
--------------------------------------------------------
--------------------------------------------------------

------------------------------------17-14---------------
------8--7---------8--7-------15-12-------15-12-10-12---
9-7-9---7--9-7-9-7--7---9-7-----------------------------
--------------------------------------------------------
--------------------------------------------------------
--------------------------------------------------------

Guitar 1
---------------------------------------------------------
---------------------------------------------------------
---------------------------------------------------------
---------------------------------------------------------
33..---------------------55---33-------------------------
----00..-2-2..-33..-55-33---------00--2-2-44-------------

Guitar 2
12-14-15-14----14-15-14-19-22----------------------------
------------12----------------20-19-20-------------------
---------------------------------------------------------
---------------------------------------------------------
---------------------------------------------------------
---------------------------------------------------------

------14-15----17-19-22----19----17----19----------------
19-12-------17----------17----17----17-------------------
---------------------------------------------------------
---------------------------------------------------------
---------------------------------------------------------
---------------------------------------------------------

Guitar 1 (or 2, doesn't matter)
---------------------------------------------------------
---------------------------------------------------------
---------------------------------------------------------
9--7--6--6--7--6--5--5-4---------------------------------
7--5--4--4--5--4--3--3-2---------------------------------
-00-00-00-00-00-00-00-0----------------------------------

Missing the litte fast part between this part and the next
Guitar 1
---------------------------------------------------------
---------------------------------------------------------
---------------------------------------------------------
-----9-10-9----------------------------------------------
---------------6..-7..-9..-3..--------3..-4..-5..-6..----
77...------88..---------------2..-3..--------------------

---------------------------------------------------------
---------------------------------------------------------
---------------------------------------------------------
-------9-10-9-55-789-5-7---------------------------------
7..-6..-------33-567-3-55---7----9----10-----------------
------------------------3-55-5-77-7-88--8-10..-11..------

Guitar 2
---19-17-----------------19----19-17-19------------17---------
---------19-20-19-17-20-----17---------17----19-20----20-19--
16----------------------------------------16-----------------
---------------------------------------------------------
---------------------------------------------------------
---------------------------------------------------------

---19-17---------17-19---19---19-17-19---19-17-19--19-17-19----
--------19-19-20-------17--17---------17---------17---------19-
16---------------------------------------------------------
---------------------------------------------------------
---------------------------------------------------------
---------------------------------------------------------

Guitar 1
---------------------------------------------------------
---------------------------------------------------------
---------------------------------------------------------
---------------------------------------------------------
---------------------------------------------------------
00...----22..--33..--55...-------------------------------

Guitar 2
---------------------------------------------------------
---------------------------------------------------------
---------------------------------------------------------
2-0-5-0-42-0-2-0-5-0-42-02-0-5-0-42-0-2-0-5-0-4-2-0------
---------------------------------------------------------
---------------------------------------------------------

Missing the clean guitar part, sorry!

Guitar 1
---------------------------------------------------------
-----------------------8-7--8-8-7-8-7--------------------
---4-5-4-5-4-5-4-5-4-5-----5---------9-------------------
5-7-----------------------------------7------------------
---------------------------------------------------------
---------------------------------------------------------

---------------------------------------------------------
---------7-8-7--------8--8-8-7-8-7-----10----------------
---4-5-4------7-5-4-5--5-----------9---------------------
5-7----------------------------------7-------------------
---------------------------------------------------------
---------------------------------------------------------

End
---------------------------------------------------------
---------------------------------------------------------
---------------------------------------------------------
--9-9----------------------------------------------------
2-7-7----------------------------------------------------
0--------------------------------------------------------

VGJam Tabs Guilty Gear X - "Still in the Dark"
Tabs database last modified Tuesday, 01-Nov-2016 19:14:53 UTC.
Copyright © 1999 - 2016 VideoGameJam.com. All rights reserved.