VGJam Tabs Final Fantasy VII
Final Fantasy VII
"Anxious Heart " - Guitar tab
Platform(s):PlayStation
Composed by:Nobuo Uematsu
Tabbed by:Thomas McManus
Last modified:1999-11-26
Print it:Original file (.TXT)
Hear it:MIDI file
Game: Final Fantasy VII
Song: Anxious Heart
Composer: Nobuo Uematsu

Tabbed by: Thomas McManus (tom0015@hotmail.com)


I can't figure out that middle part, any help would be appreciated.


part A (slow; all vibrato):


e-1------1--3-------------------------
B----3----------3--4------4--6--------
G-----------------------5---------5---
D-------------------------------------
A-------------------------------------
E-------------------------------------


part B (fast-paced scales/arpeggios?) [part A is played over this]:


part C (bells):


e---1-3-5--1-3-5-6-3---11~~----1-3-5--1-3-5-6-3-1------
B-4------------------4-------4--------------------2~~--
G------------------------------------------------------
D------------------------------------------------------
A------------------------------------------------------
E------------------------------------------------------


part D (slow):

e------------------------------------------
B-4--3--6--4~~--4--3--6--4~~---------------
G------------------------------------------
D------------------------------------------
A------------------------------------------
E------------------------------------------


song order:


part A
part B [A playing in background]
part C
part D
repeat if you like, then play part A (fade out while playing)

VGJam Tabs Final Fantasy VII - "Anxious Heart "
Tabs database last modified Tuesday, 01-Nov-2016 19:14:53 UTC.
Copyright © 1999 - 2016 VideoGameJam.com. All rights reserved.