VGJam Tabs Final Fantasy VII
Final Fantasy VII
"Boss battle theme ("Still More Fighting") " - Bass tab
Platform(s):PlayStation
Composed by:Nobuo Uematsu
Tabbed by:Blackbird
Last modified:1999-10-17
Print it:Original file (.TXT)
Hear it:MIDI file
#----------------------------------PLEASE NOTE---------------------------------#
#This file is the author's own work and represents their interpretation of the #
#song. You may only use this file for private study, scholarship, or research. #
#------------------------------------------------------------------------------#

Title: Another Battle (Final Fantasy VII Boss Battle Theme)
Bass Tablature by Blackbird (blackbird@earthdome.com)

    This is from a MIDI file by... well, some Japanese person (who has my thanks).
The timing on this is a little odd, and hard to show in tab, since it uses dotted
notes everywhere (the ones that are 1 1/2 times the length of a normal note),
but if you know the song you probably won't have much trouble with it.

------------------|------------------|------------------|------------------|
------------------|------------------|------------------|------------------|
------------------|-0----------------|------------------|-0----------------|
------------------|------------------|------0---3---4---|------------------|

------------------|------------------|------------------|------------------|
------------1---0-|------------------|------------------|------------------|
--------0---------|--3---------------|----------1----2--|-3----------------|
------------------|------------------|-----3------------|------------------|

                /------- 3x -------\                     /------- 3x -------\
--------------|----------------------|-----------------|---------------------|
--------------|*--------------------*|--2--1--1--------|*-------------------*|
---------3-21-|*-00-0-00-0-00-0-00-0*|---00-00-00-3-00-|*2-33-3-33-3-33-3-33*|
--------------|-4--------------------|-----------------|---------------------|

-0------------------|------------------|-------------------|--------------|
-----4----3----1----|-----------2------|---------0---0-----|--------------|
--33---33---33---33-|-0----2-35----2---|-3---3-21------2---|--------------|
--------------------|------------------|-----------3-----3-|-1-11-11-13-3-|

-------------------|--------------|------------------|-------------------|
-------------------|*------------*|-----------2------|---------0---0-----|
-0--00--0----------|*0-00-00-00-0*|-0----2-35----2---|-3---3-21------2---|
----------4--44--4-|--------------|------------------|-----------3-----3-|

--------------|-------------------|--------------|------------------|
--------------|-------------------|*------------*|------------------|
--------------|-0--00--0----------|*0-00-00-00-0*|-0-00-----0--0----|
-1-11-11-13-3-|----------4--44--4-|--------------|-----0-34---------|

                    /----- 3x -----\
------------------|------------------|------------------|------------------|
----------------2-|*----------------*|----------------2-|*----------------*|
-0-00-----0--035--|*0-00-----0--0---*|-0-00-----0--035--|*0-00-----0--0---*|
-----0-34---------|-----0-34---------|-----0-34---------|-----0-34---------|

---------------|--------------|---------------|---------------------|
*--------------|-------------*|---------------|-0----0----0----0--0-|
*-----------02-|-3-33-33-33-3*|-0-00-00-00-24-|----5----5----5------|
-3-33-33-33----|--------------|---------------|---------------------|

                                  /------ 3x -------\
-----------------|--------------|---------------------|--------------------|
-----------------|--------------|*0----0----0--0-----*|-0------------------|
-0-00-00-00-00-0-|-1-11-11-11-1-|*---5----5------3--3*|-----0--0-3--3-2-0--|
-----------------|--------------|---------------------|-------------------3|

 /---- 4x -----\   /------ 3x -------\
-----------------|---------------------|--------------------|-----------------|
*---------------*|*0----0----0--0-----*|-0------------------|*---------------*|
*0-00-00-00-00-0*|*---5----5------3--3*|-----0--0-3--3-2-0--|*0-00-00-00-00-0*|
-----------------|---------------------|-------------------3|-----------------|

--------------|------------------|
--------------|----------20-2----|
-3-33-33-33-3-|-2-22--22------2--|
--------------|----------------4-|
Now start over...


------------------------------------------------------------------
Ewen "Blackbird" Cluney                    blackbird@earthdome.com
Blackbird's Domain            http://www.geocities.com/tokyo/6127/
Knight Kevlar of the Immortal Frog        Silver Knight of Mihoshi
              "Be nice to me; I might just develop 
             psychokinetic powers and destroy Tokyo!"
------------------------------------------------------------------
VGJam Tabs Final Fantasy VII - "Boss battle theme ("Still More Fighting") "
Tabs database last modified Tuesday, 01-Nov-2016 19:14:53 UTC.
Copyright © 1999 - 2016 VideoGameJam.com. All rights reserved.