VGJam Tabs Final Fantasy VII
Final Fantasy VII
"Cait Sith's theme " - Guitar tab
Platform(s):PlayStation
Composed by:Nobuo Uematsu
Tabbed by:Arcallach
Last modified:2002-01-09
Print it:Original file (.TXT)
Hear it:MIDI file
Song: Cait Sith's Theme
From: Final Fantasy VII
Tabbed by Arcallach (arcallach@erols.com)
Feel free to send comments, corrections, requests, or anything else.

Percussive Organ

e----------------------------------------------------
B-1---1-0~--------1---1-0~--3/4-2---1-----1----------
G-----------3\1-------------------1---3--------------
D---------------2-----------------------4------------
A----------------------------------------------------
E----------------------------------------------------

e----------------------------------------------------
B-1---1-0~--------1---1------------------------------
G-----------3\1---------3~---------------------------
D---------------2------------------------------------
A----------------------------------------------------
E----------------------------------------------------

e-3---1-1---3~--1-1---1-2-3-4~--1-2-3-4-3-2-0---11-9-
B----------------------------------------------------
G----------------------------------------------------
D----------------------------------------------------
A----------------------------------------------------
E----------------------------------------------------

e-3---1-1---3~--1-1---1-2-3-4~--1-2-3-4-3-2-0--------
B----------------------------------------------------
G----------------------------------------------------
D----------------------------------------------------
A----------------------------------------------------
E----------------------------------------------------

e-3---1-1---3~--1-1---1~--3~--4~--6~--8--------------
B----------------------------------------------------
G----------------------------------------------------
D----------------------------------------------------
A----------------------------------------------------
E----------------------------------------------------

e-3-11-12-8-6-3-2-1---1-4-7-1-4-7-6-4---0-1~---------
B-------------------4-----------------4--------------
G----------------------------------------------------
D----------------------------------------------------
A----------------------------------------------------
E----------------------------------------------------

e----------------------------------------------------
B-1---1-0~--------1---1-0~--3/4-2---1-----1----------
G-----------3\1-------------------1---3--------------
D---------------2-----------------------4------------
A----------------------------------------------------
E----------------------------------------------------

e----------------------------------------------------
B-1---1-0~--------1---1------------------------------
G-----------3\1---------3~---------------------------
D---------------2------------------------------------
A----------------------------------------------------
E----------------------------------------------------

e---------1-1---------1-1----------------------------
B-3-3-4-4-----4-4-3-3-----4-4-3-3--------------------
G----------------------------------------------------
D----------------------------------------------------
A----------------------------------------------------
E----------------------------------------------------

e----------------------------------------------------
B-1-1-2-2-4-4-2-2-1-1-4-4-2-2-1-1--------------------
G----------------------------------------------------
D----------------------------------------------------
A----------------------------------------------------
E----------------------------------------------------

e---------1-1---------1-1----------------------------
B-3-3-4-4-----4-4-3-3-----4-4-3-3--------------------
G----------------------------------------------------
D----------------------------------------------------
A----------------------------------------------------
E----------------------------------------------------

e-3~---------1~--------------------------------------
B-----------------------4~---------3~----------------
G----------------------------------------------------
D----------------------------------------------------
A----------------------------------------------------
E----------------------------------------------------

e----------------------------------------------------
B-1---1-0~--------1---1-0~--3/4-2---1-----1----------
G-----------3\1-------------------1---3--------------
D---------------2-----------------------4------------
A----------------------------------------------------
E----------------------------------------------------

e----------------------------------------------------
B-1---1-0~--------1---1------------------------------
G-----------3\1---------3~---------------------------
D---------------2------------------------------------
A----------------------------------------------------
E----------------------------------------------------

Clarinet/Bassoon 
                                        (Around 0:06)
e----------------------------------------------------
B---------1-----1------------------------------------
G-7/8-6-1---3----------------------------------------
D-------------4--------------------------------------
A----------------------------------------------------
E----------------------------------------------------
                                        (Around 0:16)
e----------------------------------------------------
B---------------------0------------------------------
G-1-0---------------1-----3-1------------------------
D-----4-3---1-0---3-----------2-3~-------------------
A---------3-----4------------------------------------
E----------------------------------------------------

e----------------------------------------------------
B---------------------0-----0-2-1~-------------------
G-1-0---------------1-----3--------------------------
D-----4-3---1-0---3----------------------------------
A---------3-----4------------------------------------
E----------------------------------------------------

e----------------------------------------------------
B---------------------0------------------------------
G-1-0---------------1-----3-1------------------------
D-----4-3---1-0---3-----------2-3~-------------------
A---------3-----4------------------------------------
E----------------------------------------------------

e----------------------------------------------------
B---------1-----1------------------------------------
G-7/8-6-1---3----------------------------------------
D-------------4--------------------------------------
A----------------------------------------------------
E----------------------------------------------------

e----------------------------------------------------
B---------------6------------------------------------
G-3h5-3h6-3h5-3---3h5-6b5-3p0h3----------------------
D----------------------------------------------------
A----------------------------------------------------
E----------------------------------------------------

e-11-10\9-8-7-9-11-4---4-6-7-6-4-1-4-----------------
B----------------------------------------------------
G----------------------------------------------------
D----------------------------------------------------
A----------------------------------------------------
E----------------------------------------------------

e----------------------------------------------------
B---------------6------------------------------------
G-3h5-3h6-3h5-3---3h5-6b5-3p0h3----------------------
D----------------------------------------------------
A----------------------------------------------------
E----------------------------------------------------

e-8-10-12-15-13-10-6-18-15-11-7---15-10-13-11-8-6-8~-
B----------------------------------------------------
G----------------------------------------------------
D----------------------------------------------------
A----------------------------------------------------
E----------------------------------------------------

Repeat from the beginning.

VGJam Tabs Final Fantasy VII - "Cait Sith's theme "
Tabs database last modified Tuesday, 01-Nov-2016 19:14:53 UTC.
Copyright © 1999 - 2016 VideoGameJam.com. All rights reserved.