VGJam Tabs Final Fantasy VII
Final Fantasy VII
"Chasing the Black-Caped Man " - Guitar tab
Platform(s):PlayStation
Composed by:Nobuo Uematsu
Tabbed by:Thomas McManus
Last modified:2000-01-23
Print it:Original file (.TXT)
Hear it:MIDI file
Game: Final Fantasy VII
Song: Chasing the Black-caped Man
Composed by: Nobuo Uematsu
Tabbed by: Thomas McManus (tom0015@hotmail.com)

Note: I'm not sure all of the background parts are correct,
I tried my best to hear them but they're hard to make out.

part A:
e-8-8-8-8-0-0-0-0-2-2-2-2---------8-8-8-8-0-0-0-0-2-2-2-2---------
B-------------------------1-1-1-1-------------------------1-1-1-1-
G-----------------------------------------------------------------
D-----------------------------------------------------------------
A-----------------------------------------------------------------
E-----------------------------------------------------------------

part B:
e-0-------0-3-2~~-0-----------------------------------------
B---3-1-3-----------3-1-0-------0---------------------------
G-------------------------2-1-2---1-2-----------------------
D-----------------------------------------------------------
A-----------------------------------------------------------
E-----------------------------------------------------------

part C:
e--------------------------0~-2~-3~-5~-3~-7~-2~-3~----------
B---0-1-3-1---6-5-4-0-1-3~----------------------------------
G-2---------2-----------------------------------------------
D-----------------------------------------------------------
A-----------------------------------------------------------
E-----------------------------------------------------------

e---------------------------0-2-3-5-3-0-8-7-6~~~------------
B---0-1-3-1---6-5-4-0-4-5~~~--------------------------------
G-2---------2-----------------------------------------------
D-----------------------------------------------------------
A-----------------------------------------------------------
E-----------------------------------------------------------

part D:
e-------------------------2--------------------------2------
B-0-3-1---0-------0-3-1------0-3-1---0-------0-3-1----------
G-------2-----0-2-------2----------2-----0-2-------2--------
D-----------3--------------------------3---------------4/16-
A-----------------------------------------------------------
E-----------------------------------------------------------

riff A:
e----------------------
B-----1----------------
G---2---2--------------
D-2--------------------
A----------------------
E----------------------

riff B:
e---------------0------
B-----1-------1--------
G---2---2---2----------
D-2-------2------------
A----------------------
E----------------------

riff C:
e----------------------
B----------------------
G----------------------
D-----0-0--------------
A-2-2------------------
E----------------------

Song order:
   Guitar one  |  Guitar two
     part A    |  riff A x16
    part B x2  |  riff B x8
     part A    |  riff B x8
    part B x2  |  riff B x8
     part C    |  riff A x24
     part D    |  riff C x~30
     part A    |  riff A x16
    part B x2  |  riff B x8

VGJam Tabs Final Fantasy VII - "Chasing the Black-Caped Man "
Tabs database last modified Tuesday, 01-Nov-2016 19:14:53 UTC.
Copyright © 1999 - 2016 VideoGameJam.com. All rights reserved.