VGJam Tabs Final Fantasy VII
Final Fantasy VII
"Fighting " - Guitar tab
Platform(s):PlayStation
Composed by:Nobuo Uematsu
Tabbed by:Deezer
Last modified:1999-10-19
Date added:1999-04-23
Print it:Original file (.TXT)
Hear it:MIDI file
#----------------------------------PLEASE NOTE---------------------------------#
#This file is the author's own work and represents their interpretation of the #
#song. You may only use this file for private study, scholarship, or research. #
#------------------------------------------------------------------------------#

Final Fantasy VII (Sony PlayStation)
"Battle theme"

Originally composed by: Nobuo Uematsu
------------------------------------------------------------------------------
Tabbed by: Deezer (deezer@usa.net)
For http://www.kontek.net/vgjam/
------------------------------------------------------------------------------

This is a direct tab of the guitar part of a FF7 Battle theme MIDI file. In
the MIDI, I heard some notes at the end that aren't discernible in the real
song. Whatever you want to do with them is up to you.


Symbols used:
 * = Repeat this section.


Tuning - CADGBe ("Drop C tuning" or something.)


    N.C.           F5
e|-----------------13----13----13--
B|---------------------------------
G|--5------------------------------
D|---------------------------------
A|--3------------------------------
C|------------------0-----0-----0--


    F5               N.C.
e|--------------------------------------------------------
B|--------------------------------------------------------
G|--10---------------17----16----15----13---10----8----5--
D|--10----------------------------------------------------
A|---8---------------15----14----13----11----8----6----3--
C|--------------------------------------------------------


    N.C.
e|-----------------------------------3-----4------3------4------6-----8----11-
B|-----------------------4------6---------------------------------------------
G|*-5------3------5-----------------------------------------------------------
D|*---------------------------------------------------------------------------
A|----------------------------------------------------------------------------
C|----------------------------------------------------------------------------


--13----15----16----18----20------------------------
----------------------------------------------------
----------------------------------------------------
----------------------------------------------------
----------------------------------------------------
----------------------------------------------------


-----------6--------6---------------------------------14----14--11--|
--6--8--9-----9--7-----9--6--6--6--6--6--6--6--6--------------------|
-------------------------------------------------------------------*|
-------------------------------------------------------------------*|
--------------------------------------------------------------------|
--------------------------------------------------------------------|


e|-----------6--------6-----------------------------
B|--6--8--9-----9--7-----9--6--6--6--6--6--6--6--6--
G|--------------------------------------------------
D|--------------------------------------------------
A|--------------------------------------------------
C|--------------------------------------------------


e|----13--12--13------13--15--16--18--
B|----------------13------------------
G|------------------------------------
D|------------------------------------
A|------------------------------------
C|------------------------------------


e|--8--7--8--6------------------------------
B|--------------9--6--8--9------------4--6--
G|----------------------------6--5----------
D|------------------------------------------
A|------------------------------------------
C|------------------------------------------


e|--------------------------------------------------
B|--9--6--8--9--8--6-----6--------------------------
G|--------------------8--------6--8--6--5-----5-----
D|--------------------------8--------------8-----8--
A|--------------------------------------------------
C|--------------------------------------------------


    N.C.
e|----------------8--------------------------------------------------9--------
B|----------------------9--------------------------------------------------9--
G|---------------------10----6--------------------------------------------10--
D|----------------------------------------------------------------------------
A|--8------------------------4----------------------6-------------------------
C|----------------------------------------------------------------------------


    N.C.             C5      C#5    N.C.
e|-----------------------------------9----------15------18--
B|----------------------------------------------------------
G|--10---------10----12------13-----------10----------------
D|----------------------------------------------13----------
A|---8----6-----8-------------------------------------------
C|-------------------12------13-----------------15----------


Repeat from beginning.


Revisions:
 10/19/99 - Fixed up a bit
 4/22/99 - First draft

VGJam Tabs Final Fantasy VII - "Fighting "
Tabs database last modified Tuesday, 01-Nov-2016 19:14:53 UTC.
Copyright © 1999 - 2016 VideoGameJam.com. All rights reserved.