VGJam Tabs Final Fantasy VII
Final Fantasy VII
"Holding My Thoughts in My Heart " - Guitar tab
Platform(s):PlayStation
Composed by:Nobuo Uematsu
Tabbed by:tim_the_warrior777
Last modified:2002-10-30
Print it:Original file (.TXT)
Hear it:MIDI file
This tab is the "solo part's" to "Holding My Thoughts In My Heart" from Final
Fantasy 7.
It's a pretty easy song (at least it's easy on a classical guitar). 
You'll have to listen to the Midi to get it right.
I'f anythings wrong with it, just tell me! 
:-) Have fun!!! 

Repeat all the measures between the double "*" one time.


e|---------8-6-------5-3-----------13-11----------10--|
B|--6-8-10-----6----------11-13-15-------11-----------|
G|---------------6-5------------------------11-10-----|
D|----------------------------------------------------|
A|----------------------------------------------------|
E|----------------------------------------------------|


|---------8-6--------------------|
|-------6----------6-9-7-----6---|
|*--6-8--------6-8-------6-8---6-|
|*-------------------------------|
|--------------------------------|
|--------------------------------|



|--13-11-9-9-8-6-9-9--13-11-9-9-8-6-9-9---------------------------------------------|
|-----------------------------------------------------------------------------------|
|--------------------------------------------------------8-6------------------------|
|------------------------------------------------------6---------6-9-7------6-------|
|--------------------------------------------------7-9-------7-9-------7-9----7-----|
|-----------------------------------------------------------------------------------|


|--12-10-8-10-12-10-8-10-12-11-9-11-12-11-9-11-12-10-8-10-12-10-8-10-12-11-9-11-----|
|-----------------------------------------------------------------------------------|
|----------------------------------------------------------------------------------*|
|----------------------------------------------------------------------------------*|
|-----------------------------------------------------------------------------------|
|-----------------------------------------------------------------------------------|

VGJam Tabs Final Fantasy VII - "Holding My Thoughts in My Heart "
Tabs database last modified Tuesday, 01-Nov-2016 19:14:53 UTC.
Copyright © 1999 - 2016 VideoGameJam.com. All rights reserved.