VGJam Tabs Final Fantasy VII
Final Fantasy VII
"Interrupted by Fireworks " - Guitar tab
Platform(s):PlayStation
Composed by:Nobuo Uematsu
Tabbed by:edwardchong1984
Last modified:2000-03-13
Print it:Original file (.TXT)
Hear it:MIDI file
#----------------------------------PLEASE NOTE---------------------------------#
#This file is the author's own work and represents their interpretation of the #
#song. You may only use this file for private study, scholarship, or research. #
#------------------------------------------------------------------------------#


[FIREWORKS] 
(FF7-DATE WITH AERIS) 
by: Edward (edwardchong1984@yahoo.com)


This is a direct tab from a midi I have so if there are mistakes, it should be from the midi and not mine.


Tuning = EADGBE 'Standard'


E|-------0-----------------------0-----------0-----|
B|-----3---3---0-3---3---3-----3---3-------3---3---|
G|---2-------2-0---2---0-----2-------2---2-------2-|   GUITAR 1
D|-0---------------4---2---0-----------0-----------|
A|-------------------------------------------------|
E|-------------------------------------------------|
 |                                                 |
 |                                                 |
E|-----------------------------------------2-3---2-|
B|-------------------------------------------------|
G|-------------------------------------------------|   GUITAR 2
D|-------------------------------------------------|
A|-------------------------------------------------|
E|-------------------------------------------------|




E|-------------------------------------------------|
B|-------3-----------3-----------3-----------3-----|
G|-----5---5-------5---5-------5---5-------5---5---|   GUITAR 1
D|---5-------5---5-------5---5-------5---5-------5-|
A|-3-----------3-----------3-----------3-----------|
E|-------------------------------------------------|
 |                                                 |
 |                                                 |
E|-2-0-2-3-----------------------------------2---0-|
B|-------------------------------------------------|
G|-------------------------------------------------|   GUITAR 2
D|-------------------------------------------------|
A|-------------------------------------------------|
E|-------------------------------------------------|



*repeat from here*


E|-------0-----------0-----------0-----------0-----|
B|-----3---3-------3---3-------3---3-------3---3---|
G|---2-------2---2-------2---2-------2---2-------2-|   GUITAR 1
D|-0-----------0-----------0-----------0-----------|
A|-------------------------------------------------|
E|-------------------------------------------------|
 |                                                 |
 |                                                 |
E|---0-2-2-------------------2---2---2---2---2---2-|
B|-3-----------------------3---3---3---3---3---3---|
G|-------------------------------------------------|   GUITAR 2
D|-------------------------------------------------|
A|-------------------------------------------------|
E|-------------------------------------------------|




E|-------------------------------------------------|
B|-------3-----------3-----------3-----------3-----|
G|-----5---5-------5---5-------5---5-------5---5---|   GUITAR 1
D|---5-------5---5-------5---5-------5---5-------5-|
A|-3-----------3-----------3-----------3-----------|
E|-------------------------------------------------|
 |                                                 |
 |                                                 |
E|-5-3-7-0-------0---0---0---0---0---0-0-----3-----|
B|-------------1---1---1---1---1---1---------------|
G|-------------------------------------------------|   GUITAR 2
D|-------------------------------------------------|
A|-------------------------------------------------|
E|-------------------------------------------------|




E|-------------------------------------------------|
B|-------2-----------2-----------2-----------2-----|
G|-----4---4-------4---4-------4---4-------4---4---|   GUITAR 1
D|---4-------4---4-------4---4-------4---4-------4-|
A|-2-----------2-----------2-----------2-----------|
E|-------------------------------------------------|
 |                                                 |
 |                                                 |
E|-2-------------------2---7-----------------------|
B|-------------------3---3---7-----8-7-3-----------|
G|-------------4---4-----------7---------4-----4---|   GUITAR 2
D|---------------4---------------9---------4-----4-|
A|-------------------------------------------5-----|
E|-------------------------------------------------|




E|-------------------------------------------------|
B|-------3-----------3-----------0-----------1-----|
G|-----5---5-------5---5-------2---2-------2---2---|   GUITAR 1
D|---5-------5---5-------5---2-------2---2-------2-|
A|-3-----------3-----------0-----------0-----------|
E|-------------------------------------------------|
 |                                                 |
 |                                                 |
E|-------------3-----------------------------------|
B|-0-----1---------------1-0-----1-----------------|
G|-------------------------------------2-------0-2-|   GUITAR 2
D|-------------------------------------------------|
A|-------------------------------------------------|
E|-------------------------------------------------|




E|-------------------------------------------------|
B|-------------------------------------------------|
G|-----0-2-0-------0-2-0-------0-2-0-------0-2-0---|   GUITAR 1
D|---0-------0---0-------0---0-------0---0-------0-|
A|-------------------------------------------------|
E|-3-----------3-----------3-----------3-----------|
 |                                                 |
 |                                                 |
E|-------7-----------------------------------------|
B|-----8--10-8-7-8---8---8-------------------0-----|
G|---7-------------9---7---6---------9-7-----------|   GUITAR 2
D|-9-----------------------------------------------|
A|-------------------------------------------------|
E|-------------------------------------------------|




E|-------2-----------0-----------------------------|
B|-----3---3-------2---2---------5-----------5-----|
G|---2-------2---2-------2-----5---5-------5---5---|   GUITAR 1
D|-0-------------------------5-------5---5-------5-|
A|-------------4-----------3-----------3-----------|
E|-------------------------------------------------|
 |                                                 |
 |                                                 |
E|-------------0-----2-----7-----5-----4-----5-----|
B|-3-----------------------------------------------|
G|-------------------------------------------------|   GUITAR 2
D|-------------------------------------------------|
A|-------------------------------------------------|
E|-------------------------------------------------|




E|-------------------------------------------------|
B|-------3-----------3-----------3-----------3-----|
G|-----4---4-------4---4-------3---3-------3---3---|   GUITAR 1
D|---5-------5---5-------5---5-------5---5-------5-|
A|-2-----------2-----------------------------------|
E|-------------------------6-----------6-----------|
 |                                                 |
 |                                                 |
E|10-----------3-----------------------------------|
B|-------------------------------------------------|
G|-------------------------------------2-----0-----|   GUITAR 2
D|-------------------------------------------------|
A|-------------------------------------------------|
E|-------------------------------------------------|




E|-------0-----------------------0-----------0-----|
B|-----3---3---0-3---3---3-----3---3-------3---3---|
G|---2-------2-0---2---0-----2-------2---2-------2-|   GUITAR 1
D|-0---------------4---2---0-----------0-----------|
A|-------------------------------------------------|
E|-------------------------------------------------|
 |                                                 |  ==REPEAT==
 |                                                 |
E|-------------------------------------------------|
B|-------------------------------------------------|
G|-------------------------------------------------|   GUITAR 2
D|-4-----------------------------------------------|
A|-------------------------------------------------|
E|-------------------------------------------------|




This is my second song I made this year!! Cool huh!! 
-Edward- 
(edwardchong1984@yahoo.com)

VGJam Tabs Final Fantasy VII - "Interrupted by Fireworks "
Tabs database last modified Tuesday, 01-Nov-2016 19:14:53 UTC.
Copyright © 1999 - 2016 VideoGameJam.com. All rights reserved.