VGJam Tabs Final Fantasy VII
Final Fantasy VII
"Main theme (overworld) " - Guitar tab
Platform(s):PlayStation
Composed by:Nobuo Uematsu
Tabbed by:Bad Ash
Last modified:1999-05-06
Print it:Original file (.TXT)
Hear it:MIDI file
Final Fantasy 7 Overworld Music Guitar Tab
Tabbed by Michael "Bad Ash" Thompson (badash@erols.com)

Feel free to mail me any corrections or comments you might have, this should be about
99% correct. Mute channels 3, 5, and 6 on the Midi to play along.



Intro:
e-3-5-7-14-12-------------------6---------------------3-----------|
B--------------1-2-1-2-1----1-2---6---------------------3--3-1----|
G-------------------------3----------2-3-2-3-2--0-1-3----------3-2|
D-----------------------------------------------------------------|
A-----------------------------------------------------------------|
E-----------------------------------------------------------------|


Main:
---2-4-11-9----2-4-7-5---2---2-4-11-9----2-4-7-5---2-4-4-7-4-2-2|
-5-----------5---------5---5-----------5---------5--------------|
----------------------------------------------------------------|
----------------------------------------------------------------|
----------------------------------------------------------------|
----------------------------------------------------------------|


Enter Flute:
---2-4-11-9----2-4-7-5---2---2-4-11-9----2-4-7-5---4-2------|
-5-----------5---------5---5-----------5---------2-----5-4-5|
------------------------------------------------------------|
------------------------------------------------------------|
------------------------------------------------------------|
------------------------------------------------------------|


Piano Melody:
-4-5-4-4-2-2-4-5--4-2-0-2-4--7-5-7-9------2-4|
-------------------------------------5--5----|
---------------------------------------------|
---------------------------------------------|
---------------------------------------------|
---------------------------------------------|


-4-5-4-4-2-2-4-5--4-2-0-2-4--12-11-11-9-9--9-11-9-7-----4-5-4-2----|
----------------------------------------------------7-7---------5-4|
-------------------------------------------------------------------|
-------------------------------------------------------------------|
-------------------------------------------------------------------|
-------------------------------------------------------------------|


Fanfair: (with clean distortion if you want to be dramatic (: )
---2-4-11-9----2-4-7-5---2---2-4-11-9----2-4-7-5---4-2------|
-5-----------5---------5---5-----------5---------2-----5-4-5|
------------------------------------------------------------|
------------------------------------------------------------|
------------------------------------------------------------|
------------------------------------------------------------|


-3-5-7-14-12--3-5-7-10-8-3-5-3-5-7-14-12--3-5-7-10-8-0-7-5-3-2-3|
----------------------------------------------------------------|
----------------------------------------------------------------|
----------------------------------------------------------------|
----------------------------------------------------------------|
----------------------------------------------------------------|


String Transition:
-2-----5--5-1-3-7|
---3-5-----------|
-----------------|
-----------------|
-----------------|
-----------------|


String Harmony:
--------------------------------------|
--------------------------------------|
--------------------------------------|
-0...--2...--0...--2...--0...--2...--2|
-2...--4...--2...--4...--2...--4...--3|
-0...--4...--0...--4...--0...--4...--5|


String Melody:
-----------0---------3--2--0--6----7--0--0--4----5|
-2---------0----2----0--0--0-------5--8--0--5----3|
-0----3---------1-------------6-------------6-----|
------4-------------------------------------------|
--------------------------------------------------|
--------------------------------------------------|


Fanfair And End: (again, clean dist.)
 E  C  E  C2                                                 let ring
-0--0--0--8---10-5-7-8--8-3-5-7--3-2-3-7-3-3-8-7-8-11-----------|
-0--1--0--8-----------------------------------------------------|
-1--0--1--9--------------------------------------------4-0---0--|
-2--2--2--10-----------------------------------------------1---0|
-2--3--2--10----------------------------------------------------|
-0--3--0--8-----------------------------------------------------|
VGJam Tabs Final Fantasy VII - "Main theme (overworld) "
Tabs database last modified Tuesday, 01-Nov-2016 19:14:53 UTC.
Copyright © 1999 - 2016 VideoGameJam.com. All rights reserved.