VGJam Tabs Guilty Gear X
Guilty Gear X
"Writhe in Pain" - Guitar tab
Platform(s):PlayStation 2
Composed by:Daisuke Ishiwatari
Tabbed by:ricknapalm
Last modified:2001-10-06
Print it:Original file (.TXT)
Writhe in pain

Correction, feedback, questions, requests at Ricknapalm@hotmail.com

I'm lazy so when you're supposed to pick a note several times I just write
it x times then ..., I can't be bothered to count how many times he picks 
the note, besides if you can't tell you're probably not good enough to play 
this song, oh yeah I don't write palm muting either so figure it out 
yourself.

E----------------------------
A----------------------------
D----------------------------
G---------5-------7----------
B-2-------3333...-5555...----
E-0000...--------------------

E---------------------------------------------(5--3--2--3)------ (another guitar)
A---------------------------------------------------------------
D---------------------------------------------------------------
G---------------------------------------------------------------
B-----------------------------------------------12-10-9-10------
E-00-15-00-15-00-15-00-14-00-12-00-15-00-14--00-----------------

E----------------------------------------------
A----------------------------------------------
D----------------------------------------------
G--------5-------------------------------------
B--------3333...-2...-6...-7...-3...--2...-----
E-000...-----------------------------------0...

E-----------------------------------------------------------------------
A--------------10-----------10-12-10-12-10-12/13--------10--------------
D-9-11-12---------12-11--12----------------------9-11-12--12-11-9-11----
G---------9-10----------------------------------------------------------
B-----------------------------------------------------------------------
E-----------------------------------------------------------------------

/ = slide (!)

E-------------------------------15-14-12-15-20-19-17-15-11-12--
A--------------10---------10-12--------------------------------
D-9-11-12--------12-11-12--------------------------------------
G---------9-10-------------------------------------------------
B--------------------------------------------------------------
E--------------------------------------------------------------

E------------------------------------------
A------------------------------------------
D------------------------------------------
G------------------------------------------
B-2-----333...-222...----------------------
E-00...------------------------------------

VGJam Tabs Guilty Gear X - "Writhe in Pain"
Tabs database last modified Tuesday, 01-Nov-2016 19:14:53 UTC.
Copyright © 1999 - 2016 VideoGameJam.com. All rights reserved.