VGJam Tabs Final Fantasy VII
Final Fantasy VII
"One-Winged Angel " - Guitar tab
Platform(s):PlayStation
Composed by:Nobuo Uematsu
Tabbed by:Frank Marchunt
Last modified:2000-09-04
Print it:Original file (.TXT)
Hear it:MIDI file
#----------------------------------PLEASE NOTE---------------------------------#
#This file is the author's own work and represents their interpretation of the #
#song. You may only use this file for private study, scholarship, or research. #
#------------------------------------------------------------------------------#

                                ONE WINGED ANGEL
                (From the 1998 Soundtrack FINAL FANTASY VII OSV)

Transcribed by Frank Marchunt

This only contains some of the song.  I will post more of it if and when I figure it out.


Gtr I (E A D G B E) - 'Untitled'

  4/4
   Gtr I
                    ~~~~~~~            ~~~~~~~           ~~   ~~~~~~~~~~~~~~~~~
 									Play 2x
||-------------------------|-------------------------------------------------------||
||----------8---11---------|-12-12-11-12-(12)-----12----15---14--13--12---(12)-----||
||------9-----9----12-(12)-|-------------------12----12----------------------------||
||-9------9----------------|-------------------------------------------------------||
||---10--------------------|-------------------------------------------------------||
||-------------------------|-------------------------------------------------------||



  
|-6---6---6p5-------|-6p5----------|
|---8---8-----8-7-8-|-----8-7-8----|
|-------------------|--------------|
|-------------------|--------------|
|-------------------|--------------|
|-------------------|--------------|


  					Play 2x
|-5---6-5-|-7---7---7p5-------|-7p5-------5---7---||
|---8-----|---8---8-----8-7-8-|-----8-7-8---8---8-||
|---------|-------------------|-------------------||
|---------|-------------------|-------------------||
|---------|-------------------|-------------------||
|---------|-------------------|-------------------||


            ~~~~           ~~            ~
   
|-11-12\--(12)----|-11-12-----------10---9--||
|-----------------|-------12---------------o||
|-----------------|------------12-9---------||
|-----------------|-------------------------||
|-----------------|------------------------o||
|-----------------|-------------------------||


                       ~~
  
|-10p8-------8------------|------------------------|----|
|------11-10---11-8-8h10--|-8-10-11p10p8----8------|----|
|-------------------------|--------------11---11-7-|----|
|-------------------------|------------------------|----|
|-------------------------|------------------------|----|
|-------------------------|------------------------|----|


Duration Legend
---------------
W - whole; H - half; Q - quarter; E - 8th; S - 16th; T - 32nd; X - 64th; a - acciaccatura
+ - note tied to previous; . - note dotted; .. - note double dotted
Uncapitalized letters represent notes that are staccato (1/2 duration)
Irregular groupings are notated above the duration line
Duration letters will always appear directly above the note/fret number it represents the
duration for.  Duration letters with no fret number below them represent rests.  Multi-
bar rests are notated in the form Wxn, where n is the number of bars to rest for.  Low
melody durations appear below the staff

Tablature Legend
----------------
 h   - hammer-on
 p   - pull-off
 b   - bend
 pb  - pre-bend
 r   - bend release (if no number after the r, then release immediately)
 /\  - slide into or out of (from/to "nowhere")
 s   - legato slide
 S   - shift slide
  - natural harmonic
[n]  - artificial harmonic
n(n) - tapped harmonic
 ~   - vibrato
 tr  - trill
 T   - tap
 TP  - trem. picking
 PM  - palm muting
\n/  - tremolo bar dip; n = amount to dip
 \n  - tremolo bar down
 n/  - tremolo bar up
/n\  - tremolo bar inverted dip
 =   - hold bend; also acts as connecting device for hammers/pulls
 <>  - volume swell (louder/softer)
 x   - on rhythm slash represents muted slash
 o   - on rhythm slash represents single note slash

Misc Legend
-----------
 |  - bar
||  - double bar
||o - repeat start
o|| - repeat end
*|  - double bar (ending)
 :  - bar (freetime)
 $  - Segno
 &  - Coda
Tempo markers -  = BPM(8/16=s8/s16), where s8 = swing 8ths, s16 = swing 16ths


*****************************************************************************************
* Generated using Power Tab Editor by B.S. Larsen - http://www.crosswinds.net/~powertab *
*****************************************************************************************

VGJam Tabs Final Fantasy VII - "One-Winged Angel "
Tabs database last modified Tuesday, 01-Nov-2016 19:14:53 UTC.
Copyright © 1999 - 2016 VideoGameJam.com. All rights reserved.