VGJam Tabs Final Fantasy VII
Final Fantasy VII
"Parochial Town (Mideel/Bone Village) " - Bass tab
Platform(s):PlayStation
Composed by:Nobuo Uematsu
Tabbed by:bunenhagen
Last modified:1999-12-14
Print it:Original file (.TXT)
Hear it:MIDI file
Here's the bass tab to the mideel/bone village music in Final Fantasy 7. I don't have a tab maker and it's not very easy with word.


Bass:
Riff A
G:--------0--3-5--------------------------------------------0----3-5-------------5-3-1--------------------1---------
D:-----------------------3------------------------------------------------------------------1-----------------------0-- repeat
A:----3--------------------3-------------------1-3-----------------------------------------------0---1----------------
E:----------------------------3---4-------------------------------------------------------------4-----------------------


Riff B
G--------------------------------------------------------------------------------
D----1-----------1-0--------0---------rest a couple measures------0----(leads back into Riff A)
A----------------------------------4--------------------------------------------
E--------------------------------------------------------------------------------


Now play Riff 2, but instead of ending a D, play this:
G------------------------------------------------------------------------------------------------------
D-----------------------------------1---3---rests---------------1-------------3---------------------
A--1-3----4-rest some more-4------------------------------------1-----------------------------
E---------------------------------------------------1-3---3-4---------------------4---2-----3---3-
And that's it for the bass!!


If there are any questions, comments, or corrections, e-mail me at bunenhagen@hotmail.com.

VGJam Tabs Final Fantasy VII - "Parochial Town (Mideel/Bone Village) "
Tabs database last modified Tuesday, 01-Nov-2016 19:14:53 UTC.
Copyright © 1999 - 2016 VideoGameJam.com. All rights reserved.