VGJam Tabs Final Fantasy VII
Final Fantasy VII
"Those Chosen by the Planet (Sephiroth's theme) " - Guitar tab
Platform(s):PlayStation
Composed by:Nobuo Uematsu
Tabbed by:Thomas McManus
Last modified:2000-01-11
Print it:Original file (.TXT)
Hear it:MIDI file
Game: Final Fantasy VII
Song: Those Chosen By The Planet
Composer: Nobuo Uematsu
Tabbed by: Thomas McManus (tom0015@hotmail.com)


I'm writing this for two guitars (or one guitar, one bass),
but one guitar can play it (you just can't let some notes ring)
Also, all notes are single-digit (so don't go cross-eyed trying
to read the 2nd guitar/bass 8th notes! ^_~)


Thanks to AntFyre@aol.com for correcting a note I had wrong in
the third measure.


each "|" represents one measure


e------------------------------------------------------------
B------------------------------------------------------------
G----------2-1-3---------2-2-1--------2-1-3-2----------------
D------------------------------------------------------------
A------------------------------------------------------------
E------------------------------------------------------------
  |   |   |       |      |     |      |   |  |      |
G------------------------------------------------------------
D----------------------------------------------------1-1-----
A-0---0---0------0-01310-0----0-01310-0------0-013134-4-4310-
E---------------3-3-----3----3-3-----3------3-3--------------


e------1~~~~-------------------------------------------
B-4~~~~-----3~~~~~~~~~---------------------------------
G------------------------------------------------------
D------------------------------------------------------
A------------------------------------------------------
E------------------------------------------------------
  |    |    |    |    |
2nd guitar/bass plays the first three measures of the piece


e------------------------------------------------------
B------------------------------------------------------
G---2-1-3----------2-2-1--------2-1-3-2----------------
D------------------------------------------------------
A------------------------------------------------------
E------------------------------------------------------
    |       |      |     |      |   |  |      |
G------------------------------------------------------
D----------------------------------------------1-1-----
A---0-----0-01310-0-----0-01310-0------0-013134-4-4310-
E--------3-3-----3-----3-3-----3------3-3--------------




e------1~~~~4~~~~~~~~~~~~~~----------------------------
B-4~~~~------------------------------------------------
G------------------------------------------------------
D------------------------------------------------------
A------------------------------------------------------
E------------------------------------------------------
  |    |    |    |    |    |
2nd guitar/bass plays the first three measures of the piece


then repeat from beginning, minus the first three measures




Revisions:
 3/18/2000 - Note corrected in third measure
 1/11/2000 - First draft

VGJam Tabs Final Fantasy VII - "Those Chosen by the Planet (Sephiroth's theme) "
Tabs database last modified Tuesday, 01-Nov-2016 19:14:53 UTC.
Copyright © 1999 - 2016 VideoGameJam.com. All rights reserved.