VGJam Tabs Final Fantasy VII
Final Fantasy VII
"Tifa's theme " - Guitar tab
Platform(s):PlayStation
Composed by:Nobuo Uematsu
Tabbed by:Thomas McManus
Last modified:2000-01-11
Print it:Original file (.TXT)
Hear it:MIDI file
Game: Final Fantasy VII
Song: Tifa's Theme
Composer: Nobuo Uematsu
Tabbed by: Thomas McManus (tom0015@hotmail.com)

e------------------------------------------------------------
B-1--------1--------------1--------1-------------------------
G---0-3-2----0-3-3-2-0-2----0-3-2----0-3-3-2-0-2---0h2p0-----
D------------------------------------------------3-----------
A------------------------------------------------------------
E------------------------------------------------------------

e---5-3-5-----5-3-5------------5-3-5-----5-3-5-8--5-13-12-10~
B-1-------1-1-------2-4-2-1~-1-------1-1---------------------
G------------------------------------------------------------
D------------------------------------------------------------
A------------------------------------------------------------
E------------------------------------------------------------

e---6-5-6-----6-5-6-3-3-1-3-5~-5-5-3-2-3-6-5-3-3-1~---1-3~---
B-3-------3-3---------------------------------------3--------
G------------------------------------------------------------
D------------------------------------------------------------
A------------------------------------------------------------
E------------------------------------------------------------

e----------------------------------------------------1-0-----
B------------------------------------------------1-------3~--
G---2-0-2-----2-0-2--------------2-0-2-----2-0-2---2---------
D------------------------------------------------------------
A-3-------3-3-------4-4-6-4-3~-3-------3-3-------------------
E------------------------------------------------------------

e------------------------------------------------------------
B------------------------------------------------------------
G---3-2-3-----3-2-3-0-0---0-2~-2-2-0---0-3-5-0-0-------------
D-0-------0-0-----------3------------4-----------4~-0-4-5~---
A------------------------------------------------------------
E------------------------------------------------------------

repeat from beginning


VGJam Tabs Final Fantasy VII - "Tifa's theme "
Tabs database last modified Tuesday, 01-Nov-2016 19:14:53 UTC.
Copyright © 1999 - 2016 VideoGameJam.com. All rights reserved.