VGJam Tabs Final Fantasy VII
Final Fantasy VII
"Tifa's theme " - Guitar tab
Platform(s):PlayStation
Composed by:Nobuo Uematsu
Tabbed by:Josh Underwood
Last modified:2000-11-01
Print it:Original file (.TXT)
Hear it:MIDI file
Song:Tifa's Theme (lead) From FFVII 

Written by:Nobuo Uematsu 

Tab By:Josh Underwood (MajorA12@hotmail.com) 

Note: This is a great song that is very easy to play.You must have a 24fret 
guitar to play this song. No exceptions.If you have a program that 
mutes midis (such as tabledit,Guitar Pro etc.) mute tracks 2 and 3 
so you can play along!



E--8--3--6--5-------|-8--3--6--6--5--3--5----|-8--3--6--5------------]
B-------------------|------------------------|-----------------------]
G-------------------|------------------------|-----------------------]
D-------------------|------------------------|-----------------------]
A-------------------|------------------------|-----------------------]
E-------------------|------------------------|-----------------------] 


E--8--3--6--6--5--3--5--1--3--5--3-----|-----17--15--17--------------]
B--------------------------------------|--13-------------13----------]
G--------------------------------------|-----------------------------]
D--------------------------------------|-----------------------------]
A--------------------------------------|-----------------------------]
E--------------------------------------|-----------------------------] 


E-----17--15--17-------|----11--------------|-----17--15--17---------]
B-13-------------14----|-14-----14--13------|-13-------------13------]
G----------------------|--------------------|------------------------]
D----------------------|--------------------|------------------------]
A----------------------|--------------------|------------------------]
E----------------------|--------------------|------------------------]


E-----17--15--17--20--17-----24--22---|------18-17-18----------------]
B-13---------------------18-----------|--15-----------15-------------]
G-------------------------------------|------------------------------]
D-------------------------------------|------------------------------]
A-------------------------------------|------------------------------]
E-------------------------------------|------------------------------] 


E----18-17-18-15---|-15------15--17--|-17--17--15--14--15--18---------]
B-15---------------|-----18----------|--------------------------------]
G------------------|-----------------|--------------------------------]
D------------------|-----------------|--------------------------------]
A------------------|-----------------|--------------------------------]
E------------------|-----------------|--------------------------------] 


E-17--15--15-------|----------15---|----------------------------------]
B-------------18---|--15--18-------|----------------------------------]
G------------------|---------------|----------------------------------]
D------------------|---------------|----------------------------------]
A------------------|---------------|----------------------------------]
E------------------|---------------|----------------------------------] 

After this the second lead comes in playng the lead lower. I didn't tab this
because I felt it was useless to learn.
VGJam Tabs Final Fantasy VII - "Tifa's theme "
Tabs database last modified Tuesday, 01-Nov-2016 19:14:53 UTC.
Copyright © 1999 - 2016 VideoGameJam.com. All rights reserved.