VGJam Tabs Final Fantasy VII
Final Fantasy VII
"Turks' theme " - Guitar tab
Platform(s):PlayStation
Composed by:Nobuo Uematsu
Tabbed by:Deezer
Last modified:2002-10-27
Print it:Original file (.TXT)
Hear it:MIDI file
#----------------------------------PLEASE NOTE---------------------------------#
#This file is the author's own work and represents their interpretation of the #
#song. You may only use this file for private study, scholarship, or research. #
#------------------------------------------------------------------------------#

Final Fantasy VII (Sony PlayStation)
"Turks' theme"

Originally composed by: Nobuo Uematsu
------------------------------------------------------------------------------
Tabbed by: Deezer (deezer@kontek.net)
For http://www.kontek.net/vgjam/
------------------------------------------------------------------------------

Standard tuning - (low to high) EADGBe

|------------------------------------------------------------------------|
|------------------------------------------------------------------------|
|----------------7-10-12-----------------------9-12-14-------------------|
|-7-10-12-----------------------7-10-12-----------------------7-10-12----|
|----------------5--8-10-----------------------7-10-12-------------------|
|-5--8-10-----------------------5--8-10-----------------------5--8-10----|

Take a break, then repeat.


Last revised: 10/27/2002

VGJam Tabs Final Fantasy VII - "Turks' theme "
Tabs database last modified Tuesday, 01-Nov-2016 19:14:53 UTC.
Copyright © 1999 - 2016 VideoGameJam.com. All rights reserved.