VGJam Tabs Final Fantasy VII
Final Fantasy VII
"Underneath the Rotting Pizza " - Bass tab
Platform(s):PlayStation
Composed by:Nobuo Uematsu
Tabbed by:BassD
Last modified:2002-02-02
Print it:Original file (.TXT)
Hear it:MIDI file
Playstation
Game: Final Fantasy VII
Song: Sector 5 Slum (BassLine)
composer: Nobuo Uematsu
Tabbed by:BassD

   This song on the FFVII soundtrack is knowned as
    "Underneath the Rotting Pizza".

                   /slide down

Intro/Main riff
G|(x2)------------------------------------------|
D|----------------------------------------------|
A|--------5---7------------5---/8-7-5-8-7-------|
E|------7---7---0-0------7---7------------0-0---|

Other riff 1
G|(x1)--------|(x7)---------|(x1)-----|
D|------------|-------------|---------|
A|-5----5-5---|-5-5---5-5---|---5--7--|
E|------------|-------------|---------|

Main riff 2
G|-----------------------------------------------------------------------|
D|-----------------------------------------------------------------------|
A|--------5---/8-7-5-8-7------------5---7------------5---/8-7-5-8-7------|
E|------7---7------------0-0------7---7---0-0------7---7------------0-0--|

Other riff 2
G|(x1)--------|(x7)-------|------------------------|
D|------------|-----------|------------------------|
A|-0----0-0---|-0-0---0-0-|(back to main riff 1)---|
E|------------|-----------|------------------------|

For Info...
rancid_ska@hotmail.com


VGJam Tabs Final Fantasy VII - "Underneath the Rotting Pizza "
Tabs database last modified Tuesday, 01-Nov-2016 19:14:53 UTC.
Copyright © 1999 - 2016 VideoGameJam.com. All rights reserved.