VGJam Tabs Final Fantasy VII
Final Fantasy VII
"Wall Market ("Opressed People") " - Bass tab
Platform(s):PlayStation
Composed by:Nobuo Uematsu
Tabbed by:Daniel Lee Hill
Last modified:1999-09-17
Print it:Original file (.TXT)
Hear it:MIDI file
Opressed People
Wall Market Theme (BassLine)
Transcribed by: Daniel Lee Hill
aka Id


Last Updated: 9/17/99


Hi there. This is a kewl little bassline from the game Final Fantasy VII. It's
in the song
that plays when your in the Wall Market. (The song's called Opressed People,
composed by the
great Nobuo Uematsu!) Please note that this is the MAIN bassline. There is a
second bass playing
(called the BASS ECHO in the MIDI, cuz well, that's what it is!) It still sounds
very good
with out the BASS ECHO though. ENJOY!


Added: 9/17/99


Small correction thanks to Edge for pointing it out. When updating this I
noticed I had made
it in Wordpad instead of Notepad so it's not plain text =( So sorry for you
plain text ppl (like me, now) ^_-






Play This Four Times...


G------------------------------------|
D------------------------------------|
A--1-1----------2----1-1---------2---|
E------1----2-2----------1-1-2-2-----|




Then Play This Once...


G-------------------------------------------------------|
D-------------------------------------------------------|
A--1------1-3-3-0-1----------1------1-3-3-0-1-----------|
E----------------------2--4----------------------2--4---|




Play This Twice...


G------------------------------------|
D------------------------------------|
A--1-1----------2----1-1---------2---|
E------1----2-2----------1-1-2-2-----|




Then Play This Four Times...


G---------|
D---------|
A------2--|
E--2-2----|




...and start over again!




THANKS FOR READING!


VGJam Tabs Final Fantasy VII - "Wall Market ("Opressed People") "
Tabs database last modified Tuesday, 01-Nov-2016 19:14:53 UTC.
Copyright © 1999 - 2016 VideoGameJam.com. All rights reserved.