VGJam Tabs Final Fantasy VII
Final Fantasy VII
"You Can Hear the Cry of the Planet " - Guitar tab
Platform(s):PlayStation
Composed by:Nobuo Uematsu
Tabbed by:Thomas McManus
Last modified:2000-01-18
Print it:Original file (.TXT)
Hear it:MIDI file
Game: Final Fantasy VII
Song: You Can Hear the Cry of the Planet
Composed by: Nobuo Uematsu
Tabbed by: Thomas McManus

Okay, this needs a little explanation. This is best played
on three guitars (or two and a bass). The numbers above
the opening notes tells the lead on which time through riff one
to play them. Riff one plays throughout most of it - about 30
times in all. The beat starts where it says beat, and plays
throughout. For the last part of the song, play riff two
instead of riff one, while the lead guitar and beat player
continue playing their parts. If you're still confused,
email me and I'll try to explain it better.

For a single guitar, play riff one 9 times, and then just
play lead (the tab).

  riff one              riff two            beat
e--------------------|-------1------------|-----------------
B-----3--------------|-----3---3----------|-----------------
G---2---3-0-2--------|---2-------2--------|-----------------
D-0------------------|-0------------------|-0--3------------
A--------------------|--------------------|-----------------
E--------------------|--------------------|-----------------



riff one x ~30                              play 4x
e---------10th-------------0~-3~~-1~----|--5-6-3-5--1----|--
B-----------1~~~~~------3~-----------3~-|--------------3-|--
G-----------------2~~~~~----------------|----------------|--
D---------------beat--------------------|----------------|--
A-5th-9th-------------------------------|----------------|--
E-5----5--------------------------------|----------------|--

e----0~-3~~-1~----5-6-3-5--1-----5-6-3-5--1-----------------
B-3~-----------3~-------------3--------------3--------------
G-----------------------------------------------------------
D-----------------------------------------------------------
A-----------------------------------------------------------
E-----------------------------------------------------------

riff two x 16
e-1~~-------------------------------------------------------
B-----1~~------------3~~~~-1~~~~-3~~~~~~~~------------------
G---------4~~~~~~~~~----------------------------------------
D-----------------------------------------------------------
A-----------------------------------------------------------
E-----------------------------------------------------------

now repeat from the beginning

VGJam Tabs Final Fantasy VII - "You Can Hear the Cry of the Planet "
Tabs database last modified Tuesday, 01-Nov-2016 19:14:53 UTC.
Copyright © 1999 - 2016 VideoGameJam.com. All rights reserved.