VGJam Tabs ICO
ICO
"Castle in the Mist" - Guitar tab
Platform(s):PlayStation 2
Tabbed by:Andrea Mondello
Last modified:2002-04-07
Print it:Original file (.TXT)
 |-----------------------------------|
 |Castle in the Mist - ICO Soundtrack|
 |-----------------------------------|

First part [0.00 - 1.07] I only figured out this one :(
Arranged and tabbed by: Andrea Mondello [raiden85@virgilio.it]

This song should sound very good (I never tried it, however) if an acoustic 
guitar executes the chords, 
while two classic guitar do the arpeggio.

FIRST GUITAR (Acoustic, I suggest, and without plettro)

The chords for this part are: E4 - D - C - D

   E4    D     C
E--0--|--2--|--0--|
B--0--|--3--|--1--|
G--2--|--2--|--0--|
D--2--|--0--|--2--|
A--2--|--0--|--3--|
E--o--|--x--|--0--|




SECOND GUITAR (Classic, I suggest)

This should be repeated since the beginning of the song

E|-----------------------------------------|
B|---------0--------0--------0--------0----|
G|------2--------2--------2--------2-------| Repeat over and over
D|---2--------0-----------------0----------| 
A|---------------------3-------------------|
E|-----------------------------------------|
     t  i  m  t  i  m  t  i  m  t  i  m

t= thumb
i= index
m= middle finger


THIRD GUITAR (Classic, I suggest)

After two time the second guitar repeats its part, the third one should 
perform these simple notes.
For timing, just listen to the song. You can find it on gamingforce audio.

E|--0----3--2--0---------0--3--2--0-----0--7--7-|
B|------------------3----------------3----------|


E|--0----3--2--0---------0--0--0--0--0--0--0--0-| Those are with a "mandolin effect". ^_^;
B|------------------3---------------------------|


E|--7--5--7--5--7--10--7--------------|

E|--7--5--7--5--7--12--7--------------|

E|--7--5--7--5--7--15--14--12--10--12-|  The last ones (12) are with the "mandolin effect".


E|--7--5--7--5--7--10--7--------------|

E|--7--5--7--5--7--12--7--------------|

E|--7--5--7--5--7--15--14--12--10--12-|  This whole string is with the "mandolin effect".

And that's all! I hope this will be useful. Bye!

VGJam Tabs ICO - "Castle in the Mist"
Tabs database last modified Tuesday, 01-Nov-2016 19:14:53 UTC.
Copyright © 1999 - 2016 VideoGameJam.com. All rights reserved.