VGJam Tabs Final Fantasy VII
Final Fantasy VII
"You Can Hear the Cry of the Planet " - Guitar tab
Platform(s):PlayStation
Composed by:Nobuo Uematsu
Tabbed by:krow_88
Last modified:2000-09-19
Print it:Original file (.TXT)
Hear it:MIDI file
Okay, here we go.
This is in drop D tuning, but it's only needed for Guitar 1, so you don't 
need to make all four guitars (count 'em, FOUR) change their tuning to this, 
unless you feel like it.  Might be a good idea, in case the D(low E) string 
breaks, which I've never seen happen, but it doesn't mean it can't.

The Guitar 3(2) part is played four times in its first place, and repeats 
once the second time around.

For the 0~ part near the end on Guitar 3(3), either bend the B string above 
the nut or just go to the G string (heh heh) and hit the fourth fret.  
Neato!

Questions, complaints, criticisms, *cough* corrections?
Send 'em to krow_88@hotmail.com

E|---------------------------------------------------|
B|------3-----------3-----------3-----------3--------|
G|----2---3-0-2---2---3-0-2---2---3-0-2---2---3-0-2--|   Gtr. 1
D|--0-----------0-----------0-----------0------------|
A|---------------------------------------------------|
D|---------------------------------------------------|

E|---------------------------------------------------|
B|------3-----------3-----------3-----------3--------|
G|----2---3-0-2---2---3-0-2---2---3-0-2---2---3-0-2--|   Gtr. 1
D|--0-----------0-----------0-----------0------------|
A|---------------------------------------------------|
D|--0------------------------------------------------|

E|---------------------------------------------------|
B|------3-----------3-----------3-----------3--------|
G|----2---3-0-2---2---3-0-2---2---3-0-2---2---3-0-2--|   Gtr. 1
D|--0-----------0-----------0-----------0------------|
A|---------------------------------------------------|
D|--0------------------------------------------------|

E|---------------------------------------------------|
B|------3-----------3-----------3-----------3--------|
G|----2---3-0-2---2---3-0-2---2---3-0-2---2---3-0-2--|   Gtr. 1
D|--0-----------0-----------0-----------0------------|
A|---------------------------------------------------|
D|---------------------------------------------------|

E|---------------------------------------------------|
B|---------------------------------------------------|
G|---------------------------------------------------|   Gtr. 2
D|--0-----3-----0-----3-----0-----3-----0-----3------|
A|---------------------------------------------------|
D|---------------------------------------------------|

E|--------------------------------3~----------1~-----|
B|--3~----------------------3-----------3------------|
G|---------------------------------------------------|   Gtr. 3
D|---------------------------------------------------|
A|---------------------------------------------------|
D|---------------------------------------------------|

E|--------5---6---3---5-----1------------------------|
B|--3------------------------------------------------|
G|---------------------------------------------------|   Gtr. 3(2)
D|---------------------------------------------------|
A|---------------------------------------------------|
D|---------------------------------------------------|

E|---------------------------------------------------|
B|------3-----------3-----------3-----------3--------|
G|----2---3-0-2---2---3-0-2---2---3-0-2---2---3-0-2--|   Gtr. 1
D|--0-----------0-----------0-----------0------------|
A|---------------------------------------------------|
D|---------------------------------------------------|

E|---------------------------------------------------|
B|---------------------------------------------------|
G|---------------------------------------------------|   Gtr. 2
D|--0-----3-----0-----3-----0-----3-----0-----3------|
A|---------------------------------------------------|
D|---------------------------------------------------|

E|--------------------------------3~----------1~-----|
B|--3~----------------------3-----------3------------|
G|---------------------------------------------------|   Gtr. 3
D|---------------------------------------------------|
A|---------------------------------------------------|
D|---------------------------------------------------|

E|--------5---6---3---5-----1------------------------|
B|--3-----------------------------3------------------|
G|---------------------------------------------------|   Gtr. 3(2)
D|---------------------------------------------------|
A|---------------------------------------------------|
D|---------------------------------------------------|

E|---------------------------------------------------|
B|------3-----------3-----------3-----------3--------|
G|----2---3-0-2---2---3-0-2---2---3-0-2---2---3-0-2--|   Gtr. 1
D|--0-----------0-----------0-----------0------------|
A|---------------------------------------------------|
D|--0------------------------------------------------|

E|---------------------------------------------------|
B|---------------------------------------------------|
G|---------------------------------------------------|   Gtr. 2
D|--0-----3-----0-----3-----0-----3-----0-----3------|
A|---------------------------------------------------|
D|---------------------------------------------------|

E|--------0-----------0-----------0-----------0------|
B|------3---3-------3---3-------3---3-------3---3----|
G|----2-----------2-----------2-----------2----------|   Gtr. 4
D|--0-----------0-----------0-----------0------------|
A|---------------------------------------------------|
D|---------------------------------------------------|

E|---------------------------------------------------|
B|------3-----------3-----------3-----------3--------|
G|----2---3-0-2---2---3-0-2---2---3-0-2---2---3-0-2--|   Gtr. 1
D|--0-----------0-----------0-----------0------------|
A|---------------------------------------------------|
D|--0------------------------------------------------|

E|---------------------------------------------------|
B|---------------------------------------------------|
G|---------------------------------------------------|   Gtr. 2
D|--0-----3-----0-----3-----0-----3-----0-----3------|
A|---------------------------------------------------|
D|---------------------------------------------------|

E|---------------------------------------------------|
B|--3~-----------------------------------------------|
G|---------------------------------------------------|   Gtr. 3(3)
D|---------------------------------------------------|
A|---------------------------------------------------|
D|---------------------------------------------------|


E|--------0-----------0-----------0-----------0------|
B|------3---3-------3---3-------3---3-------3---3----|
G|----2-----------2-----------2-----------2----------|   Gtr. 4
D|--0-----------0-----------0-----------0------------|
A|---------------------------------------------------|
D|---------------------------------------------------|

E|---------------------------------------------------|
B|------3-----------3-----------3-----------3--------|
G|----2---3-0-2---2---3-0-2---2---3-0-2---2---3-0-2--|   Gtr. 1
D|--0-----------0-----------0-----------0------------|
A|---------------------------------------------------|
D|---------------------------------------------------|

E|---------------------------------------------------|
B|---------------------------------------------------|
G|---------------------------------------------------|   Gtr. 2
D|--0-----3-----0-----3-----0-----3-----0-----3------|
A|---------------------------------------------------|
D|---------------------------------------------------|

E|---------------------------------------------------|
B|--1~-----------------------------------------------|
G|---------------------------------------------------|   Gtr. 3(3)
D|---------------------------------------------------|
A|---------------------------------------------------|
D|---------------------------------------------------|

E|--------0-----------0-----------0-----------0------|
B|------3---3-------3---3-------3---3-------3---3----|
G|----2-----------2-----------2-----------2----------|   Gtr. 4
D|--0-----------0-----------0-----------0------------|
A|---------------------------------------------------|
D|---------------------------------------------------|

E|---------------------------------------------------|
B|------3-----------3-----------3-----------3--------|
G|----2---3-0-2---2---3-0-2---2---3-0-2---2---3-0-2--|   Gtr. 1
D|--0-----------0-----------0-----------0------------|
A|---------------------------------------------------|
D|--0------------------------------------------------|

E|---------------------------------------------------|
B|---------------------------------------------------|
G|---------------------------------------------------|   Gtr. 2
D|--0-----3-----0-----3-----0-----3-----0-----3------|
A|---------------------------------------------------|
D|---------------------------------------------------|

E|---------------------------------------------------|
B|--0~-----------------------------------------------|
G|---------------------------------------------------|   Gtr. 3(3)
D|---------------------------------------------------|
A|---------------------------------------------------|
D|---------------------------------------------------|

E|--------0-----------0-----------0-----------0------|
B|------3---3-------3---3-------3---3-------3---3----|
G|----2-----------2-----------2-----------2----------|   Gtr. 4
D|--0-----------0-----------0-----------0------------|
A|---------------------------------------------------|
D|---------------------------------------------------|

E|---------------------------------------------------|
B|------3-----------3-----------3-----------3--------|
G|----2---3-0-2---2---3-0-2---2---3-0-2---2---3-0-2--|   Gtr. 1
D|--0-----------0-----------0-----------0------------|
A|---------------------------------------------------|
D|---------------------------------------------------|

E|---------------------------------------------------|
B|---------------------------------------------------|
G|---------------------------------------------------|   Gtr. 2
D|--0-----3-----0-----3-----0-----3-----0-----3------|
A|---------------------------------------------------|
D|---------------------------------------------------|

E|---------------------------------------------------|
B|--3~-----------------------------------------------|
G|---------------------------------------------------|   Gtr. 3(3)
D|---------------------------------------------------|
A|---------------------------------------------------|
D|---------------------------------------------------|

E|--------0-----------0-----------0-----------0------|
B|------3---3-------3---3-------3---3-------3---3----|
G|----2-----------2-----------2-----------2----------|   Gtr. 4
D|--0-----------0-----------0-----------0------------|
A|---------------------------------------------------|
D|---------------------------------------------------|

E|---------------------------------------------------|
B|------3-----------3-----------3-----------3--------|
G|----2---3-0-2---2---3-0-2---2---3-0-2---2---3-0-2--|   Gtr. 1
D|--0-----------0-----------0-----------0------------|
A|---------------------------------------------------|
D|---------------------------------------------------|

E|---------------------------------------------------|
B|---------------------------------------------------|
G|---------------------------------------------------|   Gtr. 2
D|--0-----3-----0-----3-----0-----3-----0-----3------|
A|---------------------------------------------------|
D|---------------------------------------------------|

E|---------------------------------------------------|
B|--1~-----------------------------------------------|
G|---------------------------------------------------|   Gtr. 3(3)
D|---------------------------------------------------|
A|---------------------------------------------------|
D|---------------------------------------------------|

E|--------0-----------0-----------0-----------0------|
B|------3---3-------3---3-------3---3-------3---3----|
G|----2-----------2-----------2-----------2----------|   Gtr. 4
D|--0-----------0-----------0-----------0------------|
A|---------------------------------------------------|
D|---------------------------------------------------|

E|---------------------------------------------------|
B|------3-----------3-----------3-----------3--------|
G|----2---3-0-2---2---3-0-2---2---3-0-2---2---3-0-2--|   Gtr. 1
D|--0-----------0-----------0-----------0------------|
A|---------------------------------------------------|
D|---------------------------------------------------|

E|---------------------------------------------------|
B|---------------------------------------------------|
G|---------------------------------------------------|   Gtr. 2
D|--0-----3-----0-----3-----0-----3-----0-----3------|
A|---------------------------------------------------|
D|---------------------------------------------------|

E|---------------------------------------------------|
B|--3~-----------------------------------------------|
G|---------------------------------------------------|   Gtr. 3(3)
D|---------------------------------------------------|
A|---------------------------------------------------|
D|---------------------------------------------------|

E|--------0-----------0-----------0-----------0------|
B|------3---3-------3---3-------3---3-------3---3----|
G|----2-----------2-----------2-----------2----------|   Gtr. 4
D|--0-----------0-----------0-----------0------------|
A|---------------------------------------------------|
D|---------------------------------------------------|

VGJam Tabs Final Fantasy VII - "You Can Hear the Cry of the Planet "
Tabs database last modified Tuesday, 01-Nov-2016 19:14:53 UTC.
Copyright © 1999 - 2016 VideoGameJam.com. All rights reserved.