VGJam Tabs Final Fantasy VIII
Final Fantasy VIII
"The Landing" - Guitar tab
Platform(s):PlayStation
Composed by:Nobuo Uematsu
Soundtrack:Final Fantasy VIII Original Sound Version (track D1-08)
Tabbed by:Toni H
Last modified:2000-12-02
Print it:Original file (.TXT)
Hear it:MIDI file
#----------------------------------PLEASE NOTE--------------------------------#
#This file is the author's own work and represents their interpretation of the#
#song. You may only use this file for private study, scholarship, or research.#
#-----------------------------------------------------------------------------#
#-- File created with Instab - http://www.pconline.com/~smcarey/instab.html --#
#-----------------------------------------------------------------------------#

Author/Artist: Nobuo Uematsu
Title: The Landing
Album: FF8 OSV
Transcribed by: Toni H=E4m=E4l=E4inen
Email: Dalamar@nic.fi

I only transcribed the main part of the song...
Tuning: DGCFAD (dropped one whole step)

------------------------------------------------------------------------------
------------------------------------------------------------------------------
-------------6----------------6--8--9----8--6---8-------6---------------------
--6----8--9-------9--8---9---------------------------9-----8--9--6---8--------
--------------------------------------------------------------------------9---
------------------------------------------------------------------------------


------------------------------------------------------------------------------
------------------------------------------------------------------------------
----6-------------------------------------------------------------------------
-8-----9--8-------------------------------------------------------------------
------------------------------------------------------------------------------
------------------------------------------------------------------------------
 That's it... now you can repeat as many times as you want to.

VGJam Tabs Final Fantasy VIII - "The Landing"
Tabs database last modified Tuesday, 01-Nov-2016 19:14:53 UTC.
Copyright © 1999 - 2016 VideoGameJam.com. All rights reserved.