VGJam Tabs Final Fantasy VIII
Final Fantasy VIII
"Breezy" - Guitar tab
Platform(s):PlayStation
Composed by:Nobuo Uematsu
Soundtrack:Final Fantasy VIII Original Sound Version (track D1-14)
Tabbed by:Deezer
Last modified:2004-06-29
Print it:Original file (.TXT)
Hear it:MIDI file
#----------------------------------PLEASE NOTE---------------------------------#
#This file is the author's own work and represents their interpretation of the #
#song. You may only use this file for private study, scholarship, or research. #
#------------------------------------------------------------------------------#

Final Fantasy VIII (Sony PlayStation)
"Breezy"

Originally composed by: Nobuo Uematsu
------------------------------------------------------------------------------
Tabbed by: Deezer (vgjam.staff AT gmail DOT com)
For http://www.kontek.net/vgjam/
------------------------------------------------------------------------------

Symbols used:
 h  = hammer on
 p  = pull off
 NH = natural harmonic

Standard Tuning - (low to high) EADGBe

  (D6)
|-----------2----------2--|
|--------0-------0--------|
|-----2-------------2-----|
|--0----------------------|
|-------------------------|
|-------------------------| x2

 (G6/D) 
-----------0----------0-----------3----------3--
--------0-------0--------------0-------0--------
-----0-------------0--------0-------------0-----
--0----------------------0----------------------
------------------------------------------------
------------------------------------------------

  (D6)   
|-----------2----------2--|
|--------0-------0--------|
|-----2-------------2-----|
|--0----------------------|
|-------------------------|
|-------------------------| x2

 (G6/D)                 (G/D)    (D)      (Gm6)
-----------0----------0--3--------2--------0-----
--------0-------0--------------3--------3--------
-----0-------------0--------4--------2-----0--3--
--0----------------------0--------0--------------
-------------------------------------------------
-------------------------------------------------

 (Dmaj7)
-----------2----------2-----------2h3p2--------2--
--------2-------2--------------2---------2--------
-----2-------------2--------2---------------2-----
--0----------------------0------------------------
--------------------------------------------------
--------------------------------------------------

 (G6/D)                 (G/D)
-----------0----------0-----------3--------3-----
--------3-------3-----------2--------2--------2--
-----0-------------0-----------4--------4--------
--0----------------------0-----------------------
-------------------------------------------------
-------------------------------------------------

 (Dmaj7)                (D7)
-----------2----------2--5--------3--------2-----
--------2-------2--------------0-----0-----------
-----2-------------2--------5-----------5-----5--
--0----------------------0-----------------------
-------------------------------------------------
-------------------------------------------------

 (Em)     (Gmaj7/D)       A/E
--3--------2--------3-----0--
--------0--------0-----0--2--
-----0--------0-----------2--
--2--------0--------0-----2--
-----------------------------
-----------------------------

 (D)                    (Dm7)
--2--------2----------2--5--------5----------5--
-----3----------3-----------6----------6--------
--------2----------2-----------5----------5-----
--0----------------------0----------------------
------------------------------------------------
------------------------------------------------

 (G/D)                  (D)
--7--------7----------7--5--------5----------5--
-----8----------8-----------7----------7--------
--------7----------7-----------7----------7-----
--0----------------------0----------------------
------------------------------------------------
------------------------------------------------

 (D)                    (Dm7)
--2--------2----------2--5--------5----------5--
-----3----------3-----------6----------6--------
--------2----------2-----------5----------5-----
--0----------------------0----------------------
------------------------------------------------
------------------------------------------------

 (G/D)                  (D)
                               NH...........
--7--------7----------7--5--------------------
-----8----------8--------------7--------------
--------7----------7-----------------7--------
--0----------------------------------------7--
----------------------------------------------
----------------------------------------------

 (G/D)
-----------3-------------5--------3-------------
--------3-------3-----3-----3----------3-----3--
-----4-------------4-----------4----------4-----
--0----------------------0----------------------
------------------------------------------------
------------------------------------------------

 (Gm/D)
-----------3-------------5--------3-------------
--------3-------3-----3-----3----------3-----3--
-----3-------------3-----------3----------3-----
--0----------------------0----------------------
------------------------------------------------
------------------------------------------------

 (D6)
-----------2----------2----------2----------2--
--------0----------0----------0----------0-----
-----2----------2----------2----------2--------
--0--------------------------------------------
-----------------------------------------------
-----------------------------------------------

 (Gm/D)
-----------0-------------3--
--------3-------3-----3--3--
-----3-------------3-----3--
--0----------------------0--
----------------------------
----------------------------

Repeat from beginning.


Revisions:
 6/29/2004 - Added chord names. Changed one note (based on official sheet music
              vs. MIDI file). Changed fingerings in a couple areas to allow notes
              to ring. Fused the "easier" ending chord into the tab.
 8/21/2002 - Better-sounding "easier option" as suggested by rmosier1@hotmail.com
              and on_graveyard_shift@hotmail.com
 8/21/2002 - Fixed three wrong notes toward the end (thanks: rmosier1@hotmail.com) 
 4/04/2001 - Changed pinch harmonics to natural harmonics (thanks: b0n3m4n@web.de)
 2/17/2000 - Fixed two wrong notes in seventh "block" of tab (thanks: Hummergeek@aol.com)
 2/12/2000 - Correct pinch harmonics (thanks: Hummergeek@aol.com)
 8/26/1999 - First draft.

VGJam Tabs Final Fantasy VIII - "Breezy"
Tabs database last modified Tuesday, 01-Nov-2016 19:14:53 UTC.
Copyright © 1999 - 2016 VideoGameJam.com. All rights reserved.