VGJam Tabs Final Fantasy VIII
Final Fantasy VIII
"Shuffle or Boogie" - Guitar tab
Platform(s):PlayStation
Composed by:Nobuo Uematsu
Soundtrack:Final Fantasy VIII Original Sound Version (track D1-15)
Tabbed by:snocore_2000
Last modified:2000-05-06
Print it:Original file (.TXT)
Hear it:MIDI file
Shuffle or boogie (card game song)from Final Fantasy 8
its pretty easy as u can see.
tabbed by steve email:snocore_2000@hotmail.com

E ------|------|------|------|------|------|------|------|------|-----
B ------|------|------|------|------|------|------|------|------|-5-5-
G ------|------|------|------|------|------|------|------|------|-----
D ------|------|------|------|------|------|------|------|------|-----
A ------|------|------|------|------|------|------|------|------|-----
E ------|------|------|------|------|------|------|------|------|-----

E ------------|------------------|-------|-----|-----------------|----
B 5-5-8-5-5-5-|-10-5-5-5-8-5---7-|-5-5-5-|-5-5-|-5-5-5-5-8-5-5-5-|-10-
G ------------|--------------7---|-------|-----|-----------------|----
D ------------|------------------|-------|-----|-----------------|----
A ------------|------------------|-------|-----|-----------------|----
E ------------|------------------|-------|-----|-----------------|----

E --------------|-------|-----|-----------------|-------------|------|
B 5-5-5-8-5---7-|-5-5-5-|-5-5-|-8-8-7-6-5-5---5-|-5---5-5-8-5-|------|
G ----------7---|-------|-----|-------------7---|---7---------|------|
D --------------|-------|-----|-----------------|-------------|------|
A --------------|-------|-----|-----------------|-------------|------|
E --------------|-------|-----|-----------------|-------------|------|

E ------|-----------------|-------------|------|------|------|------|-
B ------|-8-8-7-6-5-5---5-|-5---5-5-8-5-|------|------|------|------|-
G ------|-------------7---|---7---------|------|------|------|------|-
D ------|-----------------|-------------|------|------|------|------|-
A ------|-----------------|-------------|------|------|------|------|-
E ------|-----------------|-------------|------|------|------|------|-

E -----|------|------|------|------|------|-----------------|---------
B -----|------|------|------|------|------|-5-5-5-5-8-5-5-5-|-10-5-5-5
G -----|------|------|------|------|------|-----------------|---------
D -----|------|------|------|------|------|-----------------|---------
A -----|------|------|------|------|------|-----------------|---------
E -----|------|------|------|------|------|-----------------|---------

E ---------|-------|-----|-----------------|------------------|-------
B -8-5---7-|-5-5-5-|-5-5-|-5-5-5-5-8-5-5-5-|-10-5-5-5-8-5---7-|-5-5-5-
G -----7---|-------|-----|-----------------|--------------7---|-------
D ---------|-------|-----|-----------------|------------------|-------
A ---------|-------|-----|-----------------|------------------|-------
E ---------|-------|-----|-----------------|------------------|-------

E |-----|-----------------|-------------|------|------|---------------
B |-5-5-|-8-8-7-6-5-5---5-|-5---5-5-8-5-|------|------|-8-8-7-6-5-5---
G |-----|-------------7---|---7---------|------|------|-------------7-
D |-----|-----------------|-------------|------|------|---------------
A |-----|-----------------|-------------|------|------|---------------
E |-----|-----------------|-------------|------|------|---------------

E --|-------------|------|------|------|------|------|------|------|--
B 5-|-5---5-5-8-5-|------|------|------|------|------|------|------|--
G --|---7---------|------|------|------|------|------|------|------|--
D --|-------------|------|------|------|------|------|------|------|--
A --|-------------|------|------|------|------|------|------|------|--
E --|-------------|------|------|------|------|------|------|------|--

E ----|------|------|-----------------|------------------|-------|----
B ----|------|------|-5-5-5-5-8-5-5-5-|-10-5-5-5-8-5---7-|-5-5-5-|-5-5
G ----|------|------|-----------------|--------------7---|-------|----
D ----|------|------|-----------------|------------------|-------|----
A ----|------|------|-----------------|------------------|-------|----
E ----|------|------|-----------------|------------------|-------|----

E -|-----------------|------------------|-------|-----|
B -|-5-5-5-5-8-5-5-5-|-10-5-5-5-8-5---7-|-5-5-5-|-5-5-|
G -|-----------------|--------------7---|-------|-----|
D -|-----------------|------------------|-------|-----|
A -|-----------------|------------------|-------|-----|
E -|-----------------|------------------|-------|-----|


VGJam Tabs Final Fantasy VIII - "Shuffle or Boogie"
Tabs database last modified Monday, 21-Jul-2014 21:11:05 CDT.
Copyright © 1999 - 2014 VideoGameJam.com. All rights reserved.