VGJam Tabs Final Fantasy VIII
Final Fantasy VIII
"Roses and Wine" - Guitar tab
Platform(s):PlayStation
Composed by:Nobuo Uematsu
Soundtrack:Final Fantasy VIII Original Sound Version (track D1-21)
Tabbed by:Devin J. McCauley
Last modified:2001-07-21
Print it:Original file (.TXT)
Hear it:MIDI file
#----------------------------------PLEASE NOTE--------------------------------#
#This file is the author's own work and represents their interpretation 
of the#
#song. You may only use this file for private study, scholarship, or research.#
#-----------------------------------------------------------------------------#
#-- File created with Instab - http://www.pconline.com/~smcarey/instab.html --#
#-----------------------------------------------------------------------------#

Author/Artist: Nobuo Uematsu
Title: Roses and Wine
Album: Final Fantasy VIII
Transcribed by: Devin McCauley
Email: STPDown43@aol.com

Play this song fingerstyle, it'll sound a lot better. The chords with a 
pick sound nasty.

------------------------------------------------------------------------------
------------------------------------------------------------------------------
--2-0---2-------------2-------2-0---2-------------2-------2-0---2-------------
------4---2-----4-2-4-------------4---2-----4-2-4-------------4---2-----------
--4-----4-------------4-------4-----4-------------4-------4-----4-------------
------------------------------------------------------------------------------


------------------------------------------------------------------------------
----------------------------------2--------------------------2----0-----------
--------2-----0-----0-------2-0-2-------2-0---2--------2-1-2--------2---------
--4-2-4---------4-2---2-----------2---------4---2------------2----0---4-------
--------4-------------------4---4-------4-----4--------4---4--------4---------
------------------------------------------------------------------------------


------------------------------------------------------------------------------
--0-----------2-----0--------0--------------------------3---------------------
--------2-1-2---------2---------------2-0---2-----------2---------------------
--0-4---------2-----0---4----0-4----------4---2---4-2-4-0---------------------
--------4---4---------4---------------4-----4---------------------------------
------------------------------------------------------------------------------

VGJam Tabs Final Fantasy VIII - "Roses and Wine"
Tabs database last modified Tuesday, 01-Nov-2016 19:14:53 UTC.
Copyright © 1999 - 2016 VideoGameJam.com. All rights reserved.