VGJam Tabs Final Fantasy VIII
Final Fantasy VIII
"Junction" - Guitar tab
Platform(s):PlayStation
Composed by:Nobuo Uematsu
Soundtrack:Final Fantasy VIII Original Sound Version (track D1-22)
Tabbed by:Issaqua
Last modified:2000-11-02
Print it:Original file (.TXT)
Hear it:MIDI file
Ok ever since I heard this song I have wanted to play it and so for anyone 
else who does here it is...

Tabbed by: Geoffrey Beint; Issaqua@hotmail.com
This should be played quite fast (listen to the midi for time)  enjoy!1
PS this is my first tab - email me with corrections.


|-16-----------------------15-------------------------------------------
|---------------------17-----------17-----------------------------------
|---------------17-----------------------17-----------------------------
|-15------18-----------------------------------18-----------18----------
|---------------------------------------------------20------------------
|-----------------------------------------------------------------------
1

                                D#5
-----------15---------15---20-|-18--------------------------------------
------17--------17------------|--------------------------18-------------
17----------------------------|---------------------19-----------19-----
------------------------------|---------16----20------------------------
------------------------------|-18--------------------------------------
------------------------------|-----------------------------------------
                              2


-----------------------------------------------------18-|-16------------
-------------------------------------18---------18------|---------------
--------------------------------19--------19------------|---------------
20------------------------20----------------------------|-15------------
------21---18------21-----------------------------------|---------------
--------------------------------------------------------|---------------
                                                        3


-----------------15-----------------------------------------------------
------------17-----------17------------------------------------17-------
------17-----------------------17------------------------17-------------
18-----------------------------------18---15------18--------------------
------------------------------------------------------------------------
------------------------------------------------------------------------


                     D#5
15---------15---20-|-18-------------------------------------------------
-----17------------|--------------------------18------------------------
-------------------|---------------------19-----------19----------------
-------------------|---------16----20-----------------------20----------
-------------------|-18-------------------------------------------21----
-------------------|----------------------------------------------------
                   4


------------------------------------------18-|-16-----------------------
--------------------------18---------18------|--------------------------
---------------------19--------19------------|---------------15---------
---------------20----------------------------|-14------18---------------
18------21-----------------------------------|--------------------------
---------------------------------------------|--------------------------
                                             5


--------------------------------------------------------12--------------
14---17------14------------------------------11----14--------14---------
-------------------15----13-----------13--------------------------------
------------------------------14----------------------------------------
------------------------------------------------------------------------
------------------------------------------------------------------------



12---16-|-14-----------------------10-----------------------------------
--------|---------------------12-----------12----9----------------------
--------|---------11----13-----------------------------11---------------
--------|-12------------------------------------------------12----------
--------|---------------------------------------------------------------
--------|---------------------------------------------------------------
        6


------------------10---------10---14-|-16-------------------------------
-------9-----12--------12------------|---------------------14-----------
11-----------------------------------|---------13----15-----------------
-------------------------------------|-14-------------------------------
-------------------------------------|----------------------------------
-------------------------------------|----------------------------------
                                     7


12-------------------------------------------------12---------12---16---
--------14----11------------------------11----14--------14--------------
--------------------13-----------13-------------------------------------
-------------------------14---------------------------------------------
------------------------------------------------------------------------
------------------------------------------------------------------------



|-14-----------------------10-------------------------------------------
|---------------------12-----------12----9------------------------------
|---------11----13-----------------------------11-----------11----------
|-12------------------------------------------------12------------------
|-----------------------------------------------------------------------
|-----------------------------------------------------------------------
8


-----------10---------10---14-------------------------------------------
9-----12--------12------------------------------------------------------
------------------------------------------------------------------------
------------------------------------------------------------------------
------------------------------------------------------------------------
------------------------------------------------------------------------

VGJam Tabs Final Fantasy VIII - "Junction"
Tabs database last modified Tuesday, 01-Nov-2016 19:14:53 UTC.
Copyright © 1999 - 2016 VideoGameJam.com. All rights reserved.