VGJam Tabs Final Fantasy VIII
Final Fantasy VIII
"Under Her Control" - Guitar tab
Platform(s):PlayStation
Composed by:Nobuo Uematsu
Soundtrack:Final Fantasy VIII Original Sound Version (track D2-09)
Tabbed by:Ray Moore
Last modified:2002-04-09
Print it:Original file (.TXT)
Hear it:MIDI file
Song: Under Her Control
Album: Final Fantasy VIII OSV, Disc 2, Track 9, PS1
Artist: Nobuo Uematsu
Tabbed by: Ray Moore - raym@wam.umd.edu

Drop D# tuning - D#,A,D,G,B,E

Riff A:
|---------------------------------------------------------------------|
|---------------------------------------------------------------------|
|---------------------------------------------------------------------|
|---5-3--5-3------5-3--5-3-(2-3)---5-3--5-3---------5-3--5-3----------|
|---------------------(6)==-------------------------------------------|
|-2-----------4-2----------------2------------4-2-2----------1-2------|

Riff B:
|---------------------------------------------------------------------|
|---------------------------------------------------------------------|
|---------------------------------------------------------------------|
|---5-3--5-3------5-3--5-3-(2-3)---5-3--5-3--------5-3--5-3-----------|
|---------------------(6)==-------------------------------------------|
|-2-----------4-2----------------2------------4-2-2----------1-0------|


|---------|-----------------------------------------------------------|
|---------|-----------------------------------------------------------|
|---------|-----------------------------------------------------------|
|--1---2--|--------5-3--5-3--------5-3--5-3---------------------------|
|--1---2--|-----------------------------------------------------------|
|--0---1--|----2-2------------4-2-2----------1-0----------------------|


Riff C:
|---------------------------------------------------------------------|
|-----4----------------------------------4----------------------------|
|---5-----3-5---5--7---7---6-5-3-------5------3-5---5-7---7----5-7-8--|
|-3-----3-----3------5---5-------5---3------3-----3-----5---5---------|
|---------------------------------------------------------------------|
|---------------------------------------------------------------------|

Order:
Riff A x2
Riff B x2
Riff A
Riff B x2
Riff C
VGJam Tabs Final Fantasy VIII - "Under Her Control"
Tabs database last modified Tuesday, 01-Nov-2016 19:14:53 UTC.
Copyright © 1999 - 2016 VideoGameJam.com. All rights reserved.