VGJam Tabs Jet Set Radio
Jet Set Radio
"Magical Girl" - Guitar tab
Platform(s):PlayStation 2
Tabbed by:Deezer
Last modified:2002-08-11
Print it:Original file (.TXT)
#----------------------------------PLEASE NOTE---------------------------------#
#This file is the author's own work and represents their interpretation of the #
#song. You may only use this file for private study, scholarship, or research. #
#------------------------------------------------------------------------------#


Jet Set Radio (PlayStation 2)
"Magical Girl"

Originally composed by: Guitar Vader
------------------------------------------------------------------------------
Tabbed by: Deezer (deezer@kontek.net)
For http://www.kontek.net/vgjam/
------------------------------------------------------------------------------

Standard Tuning - (low to high) EADGBe


Main riff:
==========

  C5      D5    D#5 D5  C5
|---------------------------------|
|---------------------------------|
|-5---5-5/7-7---8---7---5-5---5-5-|
|-5---5-5/7-7---8---7---5-5---5-5-|
|-3---3-3/5-5---6---5---3-3---3-3-|
|---------------------------------|

Play that a lot, then:

|---------------------------------|
|---------------------------------|
|---------------------------------|
|-5-0-3-0-5-0-3-0-5-0-3-0-5-0-3-0-|
|---------------------------------|
|---------------------------------| x4

Weird part, sounds like piano:

|---------------------------------|      ---------------------------------
|---------------------------------|      ---------------------------------
|---------------------------3-----|      ---------------------------------
|---5---4---3---4---5---4-------5-|      ---5---4---3---4---5---5---5---5-
|---------------------------------|      ---------------------------------
|-3---3---3---3---3---3---3---3---| x3   -3---3---3---3---3---3---3---3---


I guess that's really all you need to know.


Last modified: 08/11/2002

VGJam Tabs Jet Set Radio - "Magical Girl"
Tabs database last modified Tuesday, 01-Nov-2016 19:14:53 UTC.
Copyright © 1999 - 2016 VideoGameJam.com. All rights reserved.