VGJam Tabs Final Fantasy VIII
Final Fantasy VIII
"Ami" - Guitar tab
Platform(s):PlayStation
Composed by:Nobuo Uematsu
Soundtrack:Final Fantasy VIII Original Sound Version (track D2-19)
Tabbed by:edwardchong1984
Last modified:2000-03-15
Print it:Original file (.TXT)
Hear it:MIDI file
#----------------------------------PLEASE NOTE---------------------------------#
#This file is the author's own work and represents their interpretation of the #
#song. You may only use this file for private study, scholarship, or research. #
#------------------------------------------------------------------------------#


[AMI](FF8) 
by: Edward (edwardchong1984@yahoo.com)


This is a direct tab from a midi I have so if there are mistakes, it should be from the midi and not mine.
This is also another song which needs 2 guitars to play!! So get a partner and Rock it!!


Tuning = EADGBE 'Standard'


E|----------------|----------------|----------------|
B|-----0----------|-------0--------|---------0------|
G|---------2---1--|---------3------|-----1-2--------|   GUITAR 1
D|---2------------|---0-4---------4|---2-------2----|
A|-0--------------|-0--------------|-0-----------2--|
E|----------------|----------------|----------------|
 |                                                  |
 |                                                  |
E|---------0-----4|-2--------------|---------------2|
B|-----2-3--------|-----3---3------|-----0-2-3------|
G|----------------|----------------|----------------|   GUITAR 2
D|----------------|----------------|----------------|
A|----------------|----------------|----------------|
E|----------------|----------------|----------------|




E|----------------|----------------|----------------|
B|-------0-2-0----|-----0----------|-----2---0------|
G|-----2-------2--|---------2---1--|-------------2--|   GUITAR 1
D|---2-----------2|---2---2---2---2|---4---4---4---4|
A|-0--------------|-0--------------|-0--------------|
E|----------------|----------------|----------------|
 |                                                  |
 |                                                  |
E|-----0---0------|---------0-----4|-2--------------|
B|-4--------------|-----2-3--------|-----3---3------|
G|----------------|----------------|----------------|   GUITAR 2
D|----------------|----------------|----------------|
A|----------------|----------------|----------------|
E|----------------|----------------|----------------|




E|----------------|----------------|----------------|
B|---------0------|----------------|-----3-2-0------|
G|-----1-2--------|----------------|---2-------2----|   GUITAR 1
D|---2-------2----|---2---2---2---2|-0-----------4--|
A|-------------2--|-0--------------|----------------|
E|-0--------------|----------------|----------------|
 |                                                  |
 |                                                  |
E|----------------|----------------|-------0-2---5--|
B|-----0-2-3------|-0--------------|-----3----------|
G|---------------1|-----2---2------|----------------|   GUITAR 2
D|----------------|----------------|----------------|
A|----------------|----------------|----------------|
E|----------------|----------------|----------------|




E|----------------|----------------|----------------|
B|-----2-0--------|-----0---0------|-------0---2----|
G|---------2-1----|-------2---2----|-----2---2---2--|   GUITAR 1
D|---2---------4-2|---4---------4-0|---2-----------2|
A|-4--------------|-2--------------|-0--------------|
E|----------------|----------------|----------------|
 |                                                  |
 |                                                  |
E|-5-------0---5--|-5-----------2--|-----0---9------|
B|-----2-3--------|-----0-2-3------|-4--------------|
G|----------------|----------------|----------------|   GUITAR 2
D|----------------|----------------|----------------|
A|----------------|----------------|----------------|
E|----------------|----------------|----------------|




E|----------------|----------------|----------------|
B|-----3-2-0------|-----2-0--------|-------4--------|
G|---2-------2----|---------2-1----|-----5---------6|   GUITAR 1
D|-0-----------4--|---2---------4-2|---5-------4-6--|
A|----------------|-4--------------|-3--------------|
E|----------------|----------------|---------3------|
 |                                                  |
 |                                                  |
E|-------0-2---5--|-5-------0---5--|-5-----5-4---2--|
B|-----3----------|-----2-3--------|----------------|
G|----------------|----------------|----------------|   GUITAR 2
D|----------------|----------------|----------------|
A|----------------|----------------|----------------|
E|----------------|----------------|----------------|






E|----------------|-0--------------|-1--------------|
B|----------------|-3-------1---0--|-1--------------|
G|-------2-1------|----------------|-2--------------|   GUITAR 1
D|-----2----------|-5--------------|----------------|
A|---2------------|----------------|----------------|
E|-0--------------|----------------|----------------|
 |                                                  |
 |                                                  |
E|-0--------------|-----0-1-3-----7|-5--------------|
B|-----3---2---0--|----------------|-----6---6------|
G|----------------|----------------|----------------|   GUITAR 2
D|----------------|----------------|----------------|
A|----------------|----------------|----------------|
E|----------------|----------------|----------------|




E|-3--------------|-3--------------|-3--------------|
B|-3--------------|-5--------------|-5-----------0--|
G|-0--------------|-0--------------|-0-------2------|   GUITAR 1
D|----------------|----------------|----------------|
A|----------------|----------------|----------------|
E|----------------|----------------|----------------|
 |                                                  |
 |                                                  |
E|-------0-1-----5|-2---3--12------|-----0-1-3-----7|
B|-----3----------|----------------|----------------|
G|----------------|----------------|----------------|   GUITAR 2
D|----------------|----------------|----------------|
A|----------------|----------------|----------------|
E|----------------|----------------|----------------|




E|----------------|-1--------------|-0--------------|
B|-6-------3------|-0--------------|-1--------------|
G|-9-----------5--|-0--------------|-0--------------|   GUITAR 1
D|-7--------------|----------------|----------------|
A|----------------|----------------|----------------|
E|----------------|----------------|----------------|
 |                                                  |
 |                                                  |
E|-5--------------|-------0-1------|----------------|
B|-----6---6------|-----3---------0|-3---1---1------|
G|----------------|----------------|----------------|   GUITAR 2
D|----------------|----------------|----------------|
A|----------------|----------------|----------------|
E|----------------|----------------|----------------|




E|----------------|----------------|----------------|----------------|
B|----------------|----------------|----------------|----------------|
G|----------------|----------------|----------------|----------------|   GUITAR 1
D|---3---3---3---3|---3---3---3---3|---3---3---3---3|-----------3---3|
A|----------------|----------------|----------------|----------------|
E|-1--------------|-1--------------|-1--------------|-1-1---1--------|
 |                                                                   |
 |                                                                   |
E|-----0----------|-----0----------|-----0----------|----------------|
B|---------3---1--|---------3---1--|---------3---1--|-0-1-3-1--------|
G|-----2---2---2--|-----2---2---2--|-----2---2---2--|-2-2---2--------|  GUITAR 2
D|-----3---3---3--|-----3---3---3--|-----3---3---3--|-3-3---3--------|
A|----------------|----------------|----------------|----------------|
E|----------------|----------------|----------------|----------------|




E|----------------|----------------|----------------|----------------|
B|----------------|----------------|----------------|----------------|
G|----------------|----------------|----------------|----------------|   GUITAR 1
D|---3---3---3---3|---3---3---3---3|---3---3---3---3|-----------3---3|
A|----------------|----------------|----------------|----------------|
E|-1--------------|-1--------------|-1--------------|-1-1---1--------|
 |                                                                   |
 |                                                                   |
E|-----0----------|-----0----------|-----0----------|----------------|
B|---------3---1--|---------3---1--|---------3---1--|-0-1-3-1--------|
G|-----2---2---2--|-----2---2---2--|-----2---2---2--|-2-2---2--------|  GUITAR 2
D|-----3---3---3--|-----3---3---3--|-----3---3---3--|-3-3---3--------|
A|----------------|----------------|----------------|----------------|
E|----------------|----------------|----------------|----------------|




E|----------------|----------------|----------------|----------------|
B|----------------|----------------|----------------|----------------|
G|---2---2---2---2|---2---2---2---2|----------------|----------------|   GUITAR 1

D|----------------|----------------|---2---2---2---2|---2---2---2---2|
A|-0--------------|-0--------------|----------------|----------------|
E|----------------|----------------|-0--------------|-0--------------|
 |                                                                   |
 |                                                                   |
E|----------------|-0--------------|----------------|----------------|
B|-2--------------|-0--------------|-0--------------|----------------|
G|-2--------------|-1--------------|-----1---1------|----------------|   GUITAR 2
D|-2--------------|----------------|-4---2---2------|----------------|
A|----------------|----------------|-----2---2------|----------------|
E|----------------|----------------|----------------|----------------|




E|----------------|----------------|----------------|----------------|
B|----------------|----------------|----------------|----------------|
G|---2---2---2---2|---2---2---2---2|---0---0---0---0|----------------|   GUITAR 1
D|----------------|----------------|----------------|----------------|
A|-0--------------|-0--------------|----------------|----------------|
E|----------------|----------------|-3--------------|-3--------------|
 |                                                                   |
 |                                                                   |
E|----------------|-0--------------|----------------|----------------|
B|-2--------------|-0--------------|-2---0---0------|----------------|
G|-2--------------|-1--------------|----------------|----------------|   GUITAR 2
D|-2--------------|----------------|-1---1---1------|----------------|
A|----------------|----------------|----------------|----------------|
E|----------------|----------------|----------------|----------------|




E|-----2---0------|-----2---0------|-----2---0------|----------------|
B|-----0---0---3--|-----0---0---3--|-----0---0---3--|-0-----0---3---3|
G|----------------|----------------|----------------|-0-----0--------|   GUITAR 1
D|----------------|----------------|----------------|----------------|
A|----------------|----------------|----------------|----------------|
E|-3--------------|-3--------------|-3--------------|----------------|
 |                                                                   |
 |                                                                   |
E|-----2-3-5-3-2-0|---3-----------0|----------------|----------------|
B|----------------|-3---0-------3--|-3-1-0----------|----------------|
G|----------------|----------------|-------2-0------|----------------|   GUITAR 2
D|----------------|----------------|---------------0|---0-2-0--------|
A|----------------|----------------|----------------|-4--------------|
E|----------------|----------------|----------------|----------------|




E|----------------|----------------|----------------|---------2---0-7|
B|-----4---2---0--|-----4---2---0--|-----4---2---0--|-------0---4----|
G|-----1---1------|-----1---1------|-----1---1------|---1-3----------| GUITAR 1
D|----------------|----------------|----------------|----------------|
A|----------------|----------------|----------------|----------------|
E|-0--------------|-0--------------|-0--------------|-0--------------|
 |                                                                   |==Repeat From Beginning==
 |                                                                   |
E|-------0-2-0----|---0------------|----------------|----------------|
B|-----4-------4-2|-0-----------0-2|-0--------------|----------------|
G|----------------|-----1----------|---2-1---1------|----------------|  GUITAR 2
D|----------------|----------------|-------4--------|----------------|
A|----------------|----------------|----------------|----------------|
E|----------------|----------------|----------------|----------------|


                         It's done!!! Phew!!


              ~~**|---------------------------------|**~~
                **|        By: Edward Chong         |**
                **|    (edwardchong1984@yahoo.com)  |**
              ~~**|---------------------------------|**~~

VGJam Tabs Final Fantasy VIII - "Ami"
Tabs database last modified Tuesday, 01-Nov-2016 19:14:53 UTC.
Copyright © 1999 - 2016 VideoGameJam.com. All rights reserved.