VGJam Tabs Final Fantasy VIII
Final Fantasy VIII
"Ami" - Guitar tab
Platform(s):PlayStation
Composed by:Nobuo Uematsu
Soundtrack:Final Fantasy VIII Original Sound Version (track D2-19)
Tabbed by:micail
Last modified:2000-12-01
Print it:Original file (.TXT)
Hear it:MIDI file
[AMI - FF8]
Rearranged for solo guitar, the bass is a bit diffficult, but try to get the flow.
Micail 1/12/2000

Tuning = EADGBE 'Standard'

E|---------0-----4|-2--------------|---------------2|
B|-----2-3--------|-----3-0-3------|-----0-2-3------|
G|---------2---1--|---------3------|-----1-2--------| 
D|---2------------|---0-4---------4|---2-------2----|
A|-0--------------|-0--------------|-0-----------2--|
E|----------------|----------------|----------------|


E|-----0---0------|---------0-----4|-2--------------|
B|-4-----0-2-0----|-----2-3--------|-----3---3------|
G|-----2-------2--|---------2---1--|-------------2--| 
D|---2-----------2|---2---2---2---2|---4---4---4---4|
A|-0--------------|-0--------------|-0--------------|
E|----------------|----------------|----------------|


E|----------------|----------------|-------0---2-5--|
B|-----0-2-3------|-0--------------|-----3-2-0------|
G|-----1-2--------|-----2---2------|---2-------2----| 
D|---2-------2----|---2---2---2---2|-0-----------4--|
A|-------------2--|-0--------------|----------------|
E|-0--------------|----------------|----------------|


      					     |-------- 1/2 bar 2 using thumb...
                                             V
E|-5-------0---5--|-5-----------2--|-----0---9------| 
B|-----2-3--------|-----0-2-3------|-4-----0---2----|
G|---------2-1----|-------2---2----|-----2---2---2--| 
D|---2---------4-2|---4---------4-0|---2-----------2|
A|-4--------------|-2--------------|-0--------------|
E|----------------|----------------|----------------|



E|-------0-2---5--|-5-------0---5--|-5-----5-4---2--|
B|-----3-2-0------|-----2-3--------|-------4--------|
G|---2-------2----|---------2-1----|-----5---------6| 
D|-0-----------4--|---2---------4-2|---5-------4-6--|
A|----------------|-4--------------|-3--------------|
E|----------------|----------------|---------3------|



E|-0--------------|-0-------------7|-5--------------|
B|-----3---2---0--|-3-------1---0--|-1---6---6------|
G|-------2-1------|-0--------------|-2--------------| 
D|-----2----------|----------------|----------------|
A|---2------------|----------------|----------------|
E|-0--------------|----------------|----------------|


E|-3-----0-1------|-2---3--12------|-3---0-1-3-----7|
B|-3---3----------|-5--------------|-5-----------0--|
G|-0--------------|-0--------------|-0-------2------| 
D|----------------|----------------|----------------|
A|----------------|----------------|----------------|
E|----------------|----------------|----------------|


E|-5--------------|-1-----0-1------|----------------|
B|-6---6---6------|-0---3---------0|-3---1---1------|
G|-9-----------5--|-0--------------|-0--------------| 
D|-7--------------|----------------|----------------|
A|----------------|----------------|----------------|
E|----------------|----------------|----------------|



E|-----0----------|-----0----------|-----0----------|----------------|
B|---------3---1--|---------3---1--|---------3---1--|-0-1-3-1--------|
G|-----2---2---2--|-----2---2---2--|-----2---2---2--|-2-2---2--------| 
D|---3-3-3-3-3-3-3|---3-3-3-3-3-3-3|---3-3-3-3-3-3-3|-3-3---3---3---3|
A|----------------|----------------|----------------|----------------|
E|-1--------------|-1--------------|-1--------------|-1-1---1--------|



E|-----0----------|-----0----------|-----0----------|----------------|
B|---------3---1--|---------3---1--|---------3---1--|-0-1-3-1--------|
G|-----2---2---2--|-----2---2---2--|-----2---2---2--|-2-2---2--------| 
D|---3-3-3-3-3-3-3|---3-3-3-3-3-3-3|---3-3-3-3-3-3-3|-3-3---3---3---3|
A|----------------|----------------|----------------|----------------|
E|-1--------------|-1--------------|-1--------------|-1-1---1--------|


E|----------------|-0--------------|----------------|----------------|
B|-2--------------|-0--------------|-0--------------|----------------|
G|-2-2---2---2---2|-1-2---2---2---2|-----1---1------|----------------| 
D|-2--------------|----------------|-4-2-2-2-2-2---2|---2---2---2---2|
A|-0--------------|-0--------------|-----2---2------|----------------|
E|----------------|----------------|-0--------------|-0--------------|



E|----------------|-0--------------|----------------|----------------|
B|-2--------------|-0--------------|-2---0---0------|----------------|
G|-2-2---2---2---2|-1-2---2---2---2|---0---0---0---0|----------------| 
D|-2--------------|----------------|-1---1---1------|----------------|
A|-0--------------|-0--------------|----------------|----------------|
E|----------------|----------------|-3--------------|-3--------------|



E|-----2-3-5-3-2-0|---3-2---0-----0|-----2---0------|----------------|
B|-----0---0---3--|-3---0---0---3--|-3-1-0---0---3--|-0-----0---3---3|
G|----------------|----------------|-------2-0------|-0-----0--------| 
D|----------------|----------------|---------------0|---0-2-0--------|
A|----------------|----------------|----------------|-4--------------|
E|-3--------------|-3--------------|-3--------------|----------------|


E|-------0-2-0----|---0------------|----------------|---------2---0-7|
B|-----4---2---4-2|-0---4---2---0-2|-0---4---2---0--|-------0---4----|
G|-----1---1------|-----1---1------|---2-1---1------|---1-3----------| 
D|----------------|----------------|-------4--------|----------------|
A|----------------|----------------|----------------|----------------|
E|-0--------------|-0--------------|-0--------------|-0--------------|


VGJam Tabs Final Fantasy VIII - "Ami"
Tabs database last modified Tuesday, 01-Nov-2016 19:14:53 UTC.
Copyright © 1999 - 2016 VideoGameJam.com. All rights reserved.