VGJam Tabs Final Fantasy VIII
Final Fantasy VIII
"Fisherman's Horizon" - Guitar tab
Platform(s):PlayStation
Composed by:Nobuo Uematsu
Soundtrack:Final Fantasy VIII Original Sound Version (track D3-07)
Tabbed by:Thomas McManus
Last modified:2001-05-01
Print it:Original file (.TXT)
Hear it:MIDI file
Song: Fisherman's Horizon
Game: Final Fantasy VIII
Composed by: Nobuo Uematsu
Tabbed by: Thomas McManus (tom0015@hotmail.com)


intro
e---------------------------------------------------------------------
B-------4-3-4-1-4-----1-----------4~-6-3-4~-3~-4~~~~~~~----3-4-4~~~~~-
G---0-3-----------3~~---2-3~~-----------------------------------------
D-1---------------------------3~~-------------------------------------
A---------------------------------------------------------------------
E---------------------------------------------------------------------

main
e|----------------------------------------------------------------------
B|*----------------------------------------------------1~~--------------
G|--------0~~-------------------------0~~---0-3~~~~~-3-----3~~----------
D|--1-1-3-----1-----1-3-1-1~~~~-1-1-3-----1--------------------1~~~-3---
A|*-------------1-3-----------------------------------------------------
E|----------------------------------------------------------------------

                                         
e-------------------------------------------|--
B------------------------------------------*|--
G-0~---0---------------0~~------------------|--
D----1---3-1-----1-1-3-----1---1~~~~~~~~~~--|--
A------------3~~-------------3-------------*|--
E-------------------------------------------|--

e---------------------------------------------------------------------
B-----4-3-----1-----------1--------------------------3~~--------------
G-3~~-----3~~---3~~~~-0~~---3-0~~-2-0~~~~~---------0-----3~~-0-1-0-1--
D------------------------------------------3-1-0-1--------------------
A---------------------------------------------------------------------
E---------------------------------------------------------------------

e---3~~---------------------------------------------------------------
B-1-----3~~-4~~~~~~~-6-4~~~~~~~-6-4~~~~~~~~~~~~~~~--------------------
G---------------------------------------------------------------------
D---------------------------------------------------------------------
A---------------------------------------------------------------------
E---------------------------------------------------------------------

repeat from the main part.
VGJam Tabs Final Fantasy VIII - "Fisherman's Horizon"
Tabs database last modified Tuesday, 01-Nov-2016 19:14:53 UTC.
Copyright © 1999 - 2016 VideoGameJam.com. All rights reserved.