VGJam Tabs Final Fantasy VIII
Final Fantasy VIII
"The Oath" - Guitar tab
Platform(s):PlayStation
Composed by:Nobuo Uematsu
Soundtrack:Final Fantasy VIII Original Sound Version (track D3-10)
Tabbed by:Johnny Bancroft
Last modified:2002-05-07
Print it:Original file (.TXT)
Hear it:MIDI file
Final Fantasy VIII - The Oath (Squall's Theme)
Composed by: Nobou Uematsu
Tabbed by: Johnny Bancroft (jonathanbancroft@hotmail.com) 
Tuning: Standard (EADGbe)

This is one of my favorite songs from the FF8 OST and is pretty
easy to play, if you find any problems or corrections send them
to me, Although i think this very close.

|-----------------------------------|--------------------------------------|
|-0----3--0-1-0---------------------|-------5--7-5-3-0-0-----5-5-7-5~------|
|----2----------2-0--2-4------------|---4-7--------------2-4---------------|
|-------------------------4-0-2~----|--------------------------------------|
|-----------------------------------|--------------------------------------|
|-----------------------------------|--------------------------------------|

|-----------------------------------|--------------------------------------|
|----3-0----------------------------|----------5-/12--10-8-7-3--3-5-5~-----|
|--------2--4-5-4-2-0----4-4~-------|------4-7-----------------------------|
|----------------------2------------|--------------------------------------|
|-----------------------------------|--------------------------------------|
|-----------------------------------|--------------------------------------|

|------5----------------------------|-------7---9---10--5-2-4-5~-----------|
|-7--5----7-8-7-5-3--5-7--2---------|--------------------------------------|
|---------------------------2-4~----|--------------------------------------|
|-----------------------------------|--------------------------------------|
|-----------------------------------|--------------------------------------|
|-----------------------------------|--------------------------------------|

|--7--3-7--5-7-5-3--2--3-0-0~-------|--12--19-17-15-14-10----12--19--14~---|
|-----------------------------------|--------------------------------------|
|-----------------------------------|--------------------------------------|
|-----------------------------------|--------------------------------------|
|-----------------------------------|--------------------------------------|
|-----------------------------------|--------------------------------------|

|-10-12--19-17-15-14-10-14-12-12~---|
|-----------------------------------|
|-----------------------------------|
|-----------------------------------|
|-----------------------------------|
|-----------------------------------|

VGJam Tabs Final Fantasy VIII - "The Oath"
Tabs database last modified Tuesday, 01-Nov-2016 19:14:53 UTC.
Copyright © 1999 - 2016 VideoGameJam.com. All rights reserved.