VGJam Tabs Final Fantasy VIII
Final Fantasy VIII
"Eyes on Me" - Guitar tab
Platform(s):PlayStation
Composed by:Nobuo Uematsu
Soundtrack:Final Fantasy VIII Original Sound Version (track D3-20)
Tabbed by:edwardchong1984
Last modified:1999-12-19
Print it:Original file (.TXT)
Hear it:MIDI file
It had taken a while since I wrote my last tab...
So forgive me if there are any mistakes in this one...
The tabs are pretty right but I'm not to sure about the chords...
So...Anyway... Enjoy!!


S = Slide
H = Hammer on
P = Pull off

Intro tab:

e |--12--------------------|--12----------------14--|
B |-------12--13--10-------|-------12-13--10--------|
G |------------------------|------------------------|
D |------------------------|------------------------|
A |------------------------|------------------------|
E |------------------------|------------------------|



Music Starts:

C                  Am
Whenever sang my songs
F                G   
On the stage, on my own
C                  Em
Whenever said my words
F                     G
wishing they would be heard
Am                   Em
I saw you smiling at me
       F                C
was it real or just my fantasy
Bb                           Am     
you'd always be there in the corner
F                   G
of this tiny little bar
C                      Am
My last night here for you
F                         G
Same old songs, just once more
C                       Em
My last night here with you?
F                G
Maybe yes, maybe no
Am                 Em   
I kind of liked it your way
        F                         G  
how you shyly placed your eyes on me
C                G
Did you ever know?
           Dm7       C   C7
That I had mine on you.
            F
Darling, so there you are
               C       
with that look on your face
             Bb        G
as if you're never hurt
                   C       C7
as if you're never down
               F 
Shall I be the one for you
                Em          A
who pinches you softly but sure
   F             
if frown is shown then
       G                    F       C
I will know that you are no dreamer

Flute Solo Part:

e |0-------3------3s5------|----7---5---3---3---0---|
B |------------------------|------------------------|
G |------------------------|------------------------|
D |------------------------|------------------------|
A |------------------------|------------------------|
E |------------------------|------------------------|


e |------------------------|--0-----------------0---|
B |--3h5p3---1---------1---|-------3---1------------|
G |---------------2--------|----------------2-2-----|
D |------------------------|------------------------|
A |------------------------|------------------------|
E |------------------------|------------------------|


e |0--------3------3s5-----|--12---10---8---10------|
B |------------------------|---------------------8--|
G |------------------------|------------------------|
D |------------------------|------------------------|
A |------------------------|------------------------|
E |------------------------|------------------------|


e |------------------------|------------------------|
B |-----6---5---8-----6---5|---1---1----3h5p3-------|
G |------------------------|------------------------|
D |------------------------|------------------------|
A |------------------------|------------------------|
E |------------------------|------------------------|

Am                 Em
So let me come to you
F                 G
Close as I wanna be
C                Em
Close enough for me
   F                       G
To feel your heart beating fast
Am                  Em
And stay there as I whisper
      F                   G
How I loved your peaceful eyes on me
C               G                
Did you ever know?
           Dm7          C      C7
That I had mine on you.
           F
Darling so share with me
                 C     
Your love if you have enough
                     Bb              G
Your tears if you're holding back 
                  C               C7
or pain if that's what it is
          F      
How can I let you know
                  Em              A
I'm more then the dress and the voice
      F              
just reach me out then
        G                      F      C
You will know that you are not dreaming
            F 
Darling, so there you are
               C        
with that look on your face
              Bb           G
as if you're never hurt
                      C       C7
as if you're never down             
               F
Shall I be the one for you
                Em           A
who pinches you softly but sure
   F                
if frown is shown then
       G                    F     C
I will know that you are no dreamer


There shouldn't be too many mistake here...
But if there is... please feel free to inform me...
(edwardchong1984@yahoo.com)

VGJam Tabs Final Fantasy VIII - "Eyes on Me"
Tabs database last modified Tuesday, 01-Nov-2016 19:14:53 UTC.
Copyright © 1999 - 2016 VideoGameJam.com. All rights reserved.