VGJam Tabs Final Fantasy VIII
Final Fantasy VIII
"Eyes on Me" - Guitar tab
Platform(s):PlayStation
Composed by:Nobuo Uematsu
Soundtrack:Final Fantasy VIII Original Sound Version (track D3-20)
Tabbed by:Michael Gum
Last modified:2005-02-20
Print it:Original file (.TXT)
Hear it:MIDI file
Game: Final Fantasy VIII 
Composer: Nobuo Uematsu 
Song: Eyes on Me 
Tabbed by: Michael Gum (almightyjimbob@gmail.com)

I just took Edward Chong's tab and modified it a little bit.  The original song has a lot of those "slashy" chords (where the chord is followed by the bass note), so I changed a couple of his chords and added some.

Intro tab:

e |--12--------------------|--12----------------14--|
B |-------12--13--10-------|-------12-13--10--------|
G |------------------------|------------------------|
D |------------------------|------------------------|
A |------------------------|------------------------|
E |------------------------|------------------------|

Flute Solo tab:

e |0-------3------3s5------|----7---5---3---0-------|
B |------------------------|------------------------|
G |------------------------|------------------------|
D |------------------------|------------------------|
A |------------------------|------------------------|
E |------------------------|------------------------|


e |------------------------|--0-----------------0---|
B |--3h5p3---1---------1---|-------3---1------------|
G |---------------2--------|----------------2-2-----|
D |------------------------|------------------------|
A |------------------------|------------------------|
E |------------------------|------------------------|


e |0--------3------3s5-----|--12---10---8---10------|
B |------------------------|---------------------8--|
G |------------------------|------------------------|
D |------------------------|------------------------|
A |------------------------|------------------------|
E |------------------------|------------------------|


e |------------------------|------------------------|
B |-----6---5---8-----6---5|---1---1----3h5p3-------|
G |------------------------|------------------------|
D |------------------------|------------------------|
A |------------------------|------------------------|
E |------------------------|------------------------|


Intro chords:
F Em Dm7 Gsus4 G

C                  Am
Whenever sang my songs
F                G   
On the stage, on my own
C                  Em
Whenever said my words
F                     G
wishing they would be heard
Am                   Em
I saw you smiling at me
       F                C
was it real or just my fantasy
Bb                           Am     
you'd always be there in the corner
Am/F#               Fm
of this tiny little bar
C                      Am
My last night here for you
F                         G
Same old songs, just once more
C                       Em
My last night here with you?
F                G
Maybe yes, maybe no
Am                 Em   
I kind of liked it your way
        F                         Gsus4  G/F
how you shyly placed your eyes on me
C/E              Dm7
Did you ever know?
           F/G       C   Gm7
That I had mine on you.
C7          F
Darling, so there you are
               C       
with that look on your face
             Bb        G
as if you're never hurt
                   C    Gm7
as if you're never down
      C7       F 
Shall I be the one for you
                Em          A
who pinches you softly but sure
   Dm7             
if frown is shown then
       DM7/G                F       C
I will know that you are no dreamer


Interlude chords:
F    C/E    Dm7  Em7  Am
F    C/E    Dm7       Gsus4    G  E7/G#


Am                 Cmaj7/G
So let me come to you
F                 G
Close as I wanna be
C                Em
Close enough for me
   F                       G
To feel your heart beating fast
Am                  Em
And stay there as I whisper
      F                           Gsus4  G/F
How I loved your peaceful eyes on me
C/E             Dm7                
Did you ever know?
           F/G     C     Gm7
That I had mine on you.
C7         F
Darling so share with me
                 C     
Your love if you have enough
                     Bb              G
Your tears if you're holding back 
                  C             Gm7
or pain if that's what it is
C7        F      
How can I let you know
                  Em              A
I'm more then the dress and the voice
      Dm7              
just reach me out then
      Dm7/G                    F      C
You will know that you are not dreaming
C7          F 
Darling, so there you are
               C        
with that look on your face
              Bb           G
as if you're never hurt
                      C    Gm7
as if you're never down             
      C7       F
Shall I be the one for you
                Em           A
who pinches you softly but sure
   Dm7               
if frown is shown then
       Dm7/G                F     C
I will know that you are no dreamer


Here's a couple of the more uncommon chords I used:
Am/F#: 2x2210
G/F: 1x0003
F/G: 3X3211
Dm7/G: 3x0211
E7/G#: 4x0450
Cmaj7/G: 332000

VGJam Tabs Final Fantasy VIII - "Eyes on Me"
Tabs database last modified Tuesday, 01-Nov-2016 19:14:53 UTC.
Copyright © 1999 - 2016 VideoGameJam.com. All rights reserved.