VGJam Tabs Final Fantasy VIII
Final Fantasy VIII
"Mods de Chocobo" - Guitar tab
Platform(s):PlayStation
Composed by:Nobuo Uematsu
Soundtrack:Final Fantasy VIII Original Sound Version (track D4-01)
Tabbed by:Devin J. McCauley
Last modified:2001-07-21
Print it:Original file (.TXT)
Hear it:MIDI file
#----------------------------------PLEASE NOTE--------------------------------#
#This file is the author's own work and represents their interpretation of the#
#song. You may only use this file for private study, scholarship, or research.#
#-----------------------------------------------------------------------------#
#-- File created with Instab - http://www.pconline.com/~smcarey/instab.html --#
#-----------------------------------------------------------------------------#

Author/Artist: Nobuo Uematsu
Title: Mods de Chocobo
Album: Final Fantasy VIII Soundtrack
Transcribed by: Devin McCauley
Email: STPDown43@aol.com

------------------------------------------------------------------------------
------------------------------------------------------------------------------
--0-0-----5-5-----0-0-----5-5-----0-0-----5-5-----0-0-----55------------------
--0-0-3-3-x-x-3-3-0-0-3-3-x-x-3-3-0-0-3-3-x-x-3-3-0-0-3-3-xx-3----------------
------3-3-3-3-3-3-----3-3-3-3-3-3-----3-3-3-3-3-3-----3-3-33-3----------------
------------------------------------------------------------------------------



------------------------------------------------------------------------------
---------------------------------3-0-----3-0----------------------------------
-0-0-----0-0-----0-0-----0-0---------0-------0-3-0-3----2-0-----0-------------
-0-0-3-3-0-0-3-3-0-0-3-3-0-0-3-3-------2--------------------0-3---------------
-----3-3-----3-3-----3-3-----3-3----------------------------------------------
------------------------------------------------------------------------------



--------------------------------------------0-----------0---3-----------------
----------------------------------------------1-------1---3---3---------------
--0-----------3-----2-0-----------0-------------2---2-------------------------
--0-----3-----3-----2-0-----3-----0---------------4---------------------------
--------3-------------------3-------------------------------------------------
------------------------------------------------------------------------------



--------------------3----------0-----------0---3------------------------------
-0-1-----------1--3---3----------1-------1---3---3-----0-------0-1-0----------
-----2-------2---------------------2---2-----------------2---2-------2-0-2-0--
-------4-0-4-------------------------4---------------------0------------------
------------------------------------------------------------------------------
------------------------------------------------------------------------------



-----------------------------------------0-2-3--------------------------------
-------------------0-1-0-------0-1-0-1-3--------------------------------------
-2---------0-2-0-2-------2-0-2------------------------------------------------
------------------------------------------------------------------------------
------------------------------------------------------------------------------
------------------------------------------------------------------------------
                                                     Repeat, then play:


------------------------------------------------------------------------------
------------------------------------------------------------------------------
------3-5-3---------3-5-7-7-7-5-3--------0-x-0-0------------------------------
--3-5-------5-----5---------------5------0-x-0-0-3-0--------------------------
------------------------------------------------------------------------------
------------------------------------------------------------------------------



------------------------------------------------------------------------------
--------------------------3-0------3-0----------------------------------------
-7-10-7-5-7-5-3---------------0--------0-3-0-3----2-0-----0-------------------
----------------5-3-5-----------2---------------------0-3---------------------
------------------------------------------------------------------------------
------------------------------------------------------------------------------

VGJam Tabs Final Fantasy VIII - "Mods de Chocobo"
Tabs database last modified Tuesday, 01-Nov-2016 19:14:53 UTC.
Copyright © 1999 - 2016 VideoGameJam.com. All rights reserved.