VGJam Tabs Final Fantasy VIII
Final Fantasy VIII
"Mods de Chocobo" - Guitar tab
Platform(s):PlayStation
Composed by:Nobuo Uematsu
Soundtrack:Final Fantasy VIII Original Sound Version (track D4-01)
Tabbed by:Air Ron
Last modified:2002-03-19
Print it:Original file (.TXT)
Hear it:MIDI file
Final Fantasy VIII
Mods De Chocobo
(Guitar Part)

E|---------------------------------------------------------
B|---------------------------------------------------------
G|--0---0-----------0---0----------------------------------
D|--0---0---3---3-----------3---3--------------------------
A|----------3---3---3---3---3---3--------------------------
E|---------------------------------------------------------

(Organ Part)
 
(A) E|--10---7-------0---10--7-----6---3---6----5--3-----1--3-----
    B|-----------8--------------8---------------------3-----------
    G|------------------------------------------------------------
    D|------------------------------------------------------------
    A|------------------------------------------------------------
    E|------------------------------------------------------------
 
(B) E|--12---8-------------8--12--10---15--10---------------------
    B|----------10--8--10-----------------------------------------
    G|------------------------------------------------------------
    D|------------------------------------------------------------
    A|------------------------------------------------------------
    E|------------------------------------------------------------

(C) E|--7--8-------------------8--7--10---7-----------------------
    B|--------10--7-----7--10-------------------------------------
    G|---------------7--------------------------------------------
    D|------------------------------------------------------------
    A|------------------------------------------------------------
    E|------------------------------------------------------------

(D) E|--7--5-----5--7--8--7--5-----5------5-----------------------
    B|--------8-----------------8-----8---------------------------
    G|------------------------------------------------------------
    D|------------------------------------------------------------
    A|------------------------------------------------------------
    E|------------------------------------------------------------

    E|-----5--8--5--7--8--7--5-----5--7--8--7--8--10--12--14--15--
    B|--8-----------------------8---------------------------------
    G|------------------------------------------------------------
    D|------------------------------------------------------------
    A|------------------------------------------------------------
    E|------------------------------------------------------------

    -Air Ron (Townshiprebellion420@yahoo.com)
VGJam Tabs Final Fantasy VIII - "Mods de Chocobo"
Tabs database last modified Tuesday, 01-Nov-2016 19:14:53 UTC.
Copyright © 1999 - 2016 VideoGameJam.com. All rights reserved.