VGJam Tabs Final Fantasy VIII
Final Fantasy VIII
"Maybe I'm a Lion" - Guitar tab
Platform(s):PlayStation
Composed by:Nobuo Uematsu
Soundtrack:Final Fantasy VIII Original Sound Version (track D4-08)
Tabbed by:Devin J. McCauley
Last modified:2001-07-18
Print it:Original file (.TXT)
Hear it:MIDI file
#-----------------------------------------------------------------------------#
#-- File created with Instab - http://www.pconline.com/~smcarey/instab.html --#
#-----------------------------------------------------------------------------#

Author/Artist: Nobuo Uematsu
Title: Maybe I'm a Lion
Album: Final Fantasy VIII Soundtrack
Transcribed by: Devin McCauley
Email: STPDown43@aol.com

This is not the whole song, but if you want a certain part, you can send 
me an e-mail, and I can get it for you.

--------|--------|--------|--------|--------|--------|--------|-------------|-
--------|--------|--------|--------|--------|--------|--------|-------------|-
--------|--------|--------|--------|--------|--------|--------|------------*|-
-3------|-----5--|-6------|-----8--|-9------|-----3--|-4------|--4---------*|-
-3------|-----5--|-6------|-----8--|-9------|-----3--|-4------|--4----------|-
-1------|-----3--|-4------|-----6--|-7------|-----1--|-6------|--2----------|-
 1 2 3 4  1 2 3 4  1 2 3 4  1 2 3 4  1 2 3 4  1 2 3 4  1 2 3 4   1 2 3 4


----------------|----------------|----------------|----------------|----------
----------------|----------------|----------------|----------------|----------
----------------|----------------|----------------|---------------*|----------
----------------|----------------|----------------|---------------*|----------
---------1------|-----1---4---3--|---------3------|----------------|----------
-3---3-3---3-1-3|---3---3--------|-3---3-3---3-1-3|----------------|----------
 1 & 2 & 3 & 4 & 1 & 2 & 3 & 4 & 1 & 2 & 3 & 4 & 1 & 2 & 3 & 4 & 
--------------------------------|--------------------------------|------------
--------------------------------|--------------------------------|------------
-----------------------1-0------|-------------------------------*|------------
-3-----------1-----1-3-----3-1--|-------------------------------*|------------
---4-3-1-3-4---3-4-------------4|-3-4-1-3---3-4-1-3-------3-4-1-3|------------
--------------------------------|--------------------------------|------------
 1 e & a 2 e & a 3 e & a 4 e & a  1 e & a 2 e & a 3 e & a 4 e & a


------------------------------------------------------------------------------
------------------------------------------------------------------------------
------------------------------------------------------------------------------
------------------------------------------------------------------------------
------------------------------------------------------------------------------
------------------------------------------------------------------------------
       There. If you need anything, just give me an e-mail

VGJam Tabs Final Fantasy VIII - "Maybe I'm a Lion"
Tabs database last modified Tuesday, 01-Nov-2016 19:14:53 UTC.
Copyright © 1999 - 2016 VideoGameJam.com. All rights reserved.