VGJam Tabs Final Fantasy IX
Final Fantasy IX
"The Place I'll Return to Someday" - Guitar tab
Platform(s):PlayStation
Composed by:Nobuo Uematsu
Soundtrack:Final Fantasy IX Original Soundtrack (track D1-01)
Tabbed by:the chuck
Last modified:2001-07-19
Print it:Original file (.TXT)
Date: July 17, 2001

	~ The Place I'll Return To Someday ~
		(from the ff9 ost)

Original Composition: 	Nobuo Uematsu
	  Tabulation: 	the chuck (gchuckyg@aol.com)
	  Tabbed for:	http://www.kontek.net/vgjam

----------------------------------------------------------------------
note: this was originally sheet music i found online, but i tabbed
	it and made a few adjustments because a few notes didn't 
	sound right.

	before you start to play, it is recommended that you listen
	to the song to get a feel for the times and the types of
	notes.

tuning:	standard tuning

----------------------------------------------------------------------

** beginning section **

e|-------------------------7---8---7-----------------------------------|
B|-----------------8---10--------------10---8---10---------------------|
G|---7---9---10--------------------------------------10---9---7---5----|
D|---------------------------------------------------------------------|
A|---------------------------------------------------------------------|
E|---------------------------------------------------------------------|


e|-------------------------7---8---7----------------------|
B|-----------------8---10--------------10---10---9---10---|
G|---7---9---10-------------------------------------------|
D|--------------------------------------------------------|
A|--------------------------------------------------------|
E|--------------------------------------------------------|

e|-------------------------7---8---7-----------------------------------|
B|-----------------8---10--------------10---8---10---------------------|
G|---7---9---10--------------------------------------10---9---7---5----|
D|---------------------------------------------------------------------|
A|---------------------------------------------------------------------|
E|---------------------------------------------------------------------|


e|----------------------------------------------------------------------------|
B|-------------------------------------10-------------------------------------|
G|---10---10---12---10---9------------------9---12---10---9---9---9---9---7---|
D|---------------------------12---10------------------------------------------|
A|----------------------------------------------------------------------------|
E|----------------------------------------------------------------------------|


** higher section **


e|---10------10---8---7----------------------------------7---8---8-|
B|-------10--------------10---8---10---6---8---10---10-------------|
G|-----------------------------------------------------------------|
D|-----------------------------------------------------------------|
A|-----------------------------------------------------------------|
E|-----------------------------------------------------------------|


e|---10------10---8---7---------------------------------------|
B|-------10--------------10---8-------------------------------|
G|--------------------------------10---12---9-----------------|
D|----------------------------------------------11---12---12--|
A|------------------------------------------------------------|
E|------------------------------------------------------------|


e|---10------10---8---7----------------------------------7---8---8-|
B|-------10--------------10---8---10---6---8---10---10-------------|
G|-----------------------------------------------------------------|
D|-----------------------------------------------------------------|
A|-----------------------------------------------------------------|
E|-----------------------------------------------------------------|

e|---10------10---8---7---------------------------------------|
B|-------10--------------10---8-------------------------------|
G|--------------------------------10---12---9-----------------|
D|----------------------------------------------12---11---12--|
A|------------------------------------------------------------|
E|------------------------------------------------------------|

VGJam Tabs Final Fantasy IX - "The Place I'll Return to Someday"
Tabs database last modified Tuesday, 01-Nov-2016 19:14:53 UTC.
Copyright © 1999 - 2016 VideoGameJam.com. All rights reserved.