VGJam Tabs Final Fantasy IX
Final Fantasy IX
"Jesters of the Moon" - Guitar tab
Platform(s):PlayStation
Composed by:Nobuo Uematsu
Soundtrack:Final Fantasy IX Original Soundtrack (track D1-09)
Tabbed by:the mhb
Last modified:2007-04-20
Date added:2008-01-04
Print it:Original file (.TXT)
Hear it:MIDI file
                              Jesters of the Moon
                            (Zorn and Thorn's Theme)


     E   E  E   E  E   E  Q        S  S E   S  S  S  S  S  S  S  S  E   E   
E||----------------------------|-----------12------------------------------|
B||-----10-----10---------8----|--10----------13----------------13-12------|
G||-------------------10-------|-----10----------14--------------------12--|
D||----------------------------|--------7-----------14-15-14-15------------|
A||----------------------------|-------------------------------------------|
E||----------------------------|-------------------------------------------|


  E   E  E   E  E   E  Q        E   E   E   E   E   E   E   E   
----------------------------|----------------------------------|
-----10-----10---------8----|--13--13--12--10------------------|
-------------------10-------|------------------13--------------|
----------------------------|----------------------14--12------|
----------------------------|------------------------------14--|
----------------------------|----------------------------------|


  Q.      S  S E   S  S  S  S  E   
---------11-12--------------------|
------------------13--------------|
---------------------14-12--------|
---------------------------12-10--|
----------------------------------|
----------------------------------|


  S  S  S  S  S  S  S  S  S  S  E   S  S  S  S  
----17-----------------------------------------|
-------17----15-13-----------------------------|
----------14-------14-12-12--------------------|
----------------------------13-12--10----------|
--------------------------------------12-10----|
--------------------------------------------12-|


   E   S  S  E   E   Q.      E      E   E   E   E   E   Q     E   
--------------------------------|------13--12--------------------|
---------12-13------------------|------------------15--13----12--|
--14--14--------14--------------|--14----------14----------------|
--------------------15------14--|--------------------------------|
--------------------------------|--------------------------------|
--------------------------------|--------------------------------|


   E   S  S  E   E   Q.      E      E   E   E   E   Q     Q     
--------------------------------|------------------------------|
---------12-13------------------|------13--12------------------|
--14--14--------14--------------|--------------14--14----13----|
--------------------15------14--|--13--------------------------|
--------------------------------|------------------------------|
--------------------------------|------------------------------|


   E   S  S  E   E   Q.      E      E   E   E   E   E   Q     E   
--------------------------------|------13--12--------------------|
---------12-13------------------|------------------15--13----12--|
--14--14--------14--------------|--14----------14----------------|
--------------------15------14--|--------------------------------|
--------------------------------|--------------------------------|
--------------------------------|--------------------------------|


   E   S  S  E   E   Q.      E      E   S  S  Q.      E   Q     
--------------------------------|------------------------------|
---------12-13------------------|------------------------------|
--14--14--------14--------------|--14--------------------------|
--------------------15------14--|---------12-13------14--------|
--------------------------------|------15----------------12----|
--------------------------------|------------------------------|


   E   S  S  E   E   Q.      E      E   E   E   E   E   Q     E   
--------------------------------|------13--12--------------------|
---------12-13------------------|------------------15--13----12--|
--14--14--------14--------------|--14----------14----------------|
--------------------15------14--|--------------------------------|
--------------------------------|--------------------------------|
--------------------------------|--------------------------------|


   E   S  S  E   E   Q.      E      E   E   E   E   Q     Q     
--------------------------------|------------------------------|
---------12-13------------------|------13--12------------------|
--14--14--------14--------------|--------------14--14----13----|
--------------------15------14--|--13--------------------------|
--------------------------------|------------------------------|
--------------------------------|------------------------------|


   E   S  S  E   E   Q.      E      E   E   E   E   E   Q     E   
--------------------------------|------13--12--------------------|
---------12-13------------------|------------------15--13----12--|
--14--14--------14--------------|--14----------14----------------|
--------------------15------14--|--------------------------------|
--------------------------------|--------------------------------|
--------------------------------|--------------------------------|


   E   S  S  E   E   Q.      E      E   S  S  Q.      E   Q     
--------------------------------|------------------------------|
---------12-13------------------|------------------------------|
--14--14--------14--------------|--14--------------------------|
--------------------15------14--|---------12-13------14--------|
--------------------------------|------15----------------12----|
--------------------------------|------------------------------|


   H        Q    E  S  S     S S  S S S S  S S  Q    Q     
-------------------------|--------------------------------|
-------------------------|--------------------------------|
--10--------9------------|--------------------------------|
--------------------9-10-|--12---10---9-------------------|
-------------------------|----------------12---11---------|
-------------------------|--------------------------------|


   H        Q    E  S  S     S S  S S  S S  S S Q     Q     
-------------------------|---------------------------------|
-------------------------|---------------------------------|
--10--------9------------|----------------------9----12----|
--------------------9-10-|--12---10---12---13--------12----|
-------------------------|---------------------------11----|
-------------------------|---------------------------------|


   E   E   E   E   E   E   Q        E   E   E   E   E   E   E   E   
--------------------------11----|----------11--13--12--------------|
------13--------------13--------|------13--------------13----------|
--14------14------14------------|--14----------------------13------|
--------------14----------------|------------------------------14--|
--------------------------------|----------------------------------|
--------------------------------|----------------------------------|


   E   E   E   E   E   E   Q       E   E   E   E  E  E  E  E   
--------------------------11----|-----12--11--10--9--8--7-----|
------13--------------13--------|--------------------------9--|
--14------14------14------------|-----------------------------|
--------------14----------------|-----------------------------|
--------------------------------|-----------------------------|
--------------------------------|-----------------------------|


   E   E   E   E   E   E   Q        E   E   E   E   E   E   E   E   
--------------------------11----|----------11--13--12--------------|
------13--------------13--------|------13--------------13----------|
--14------14------14------------|--14----------------------13------|
--------------14----------------|------------------------------14--|
--------------------------------|----------------------------------|
--------------------------------|----------------------------------|


                                                               |--3--|         
   E   E   E   E   E   E   Q        S  S  S  S  S  S  S  S  E  S  S  S  Q      
--------------------------11----|--12-11-12-13-12-10-------------------------||
------13--------------13--------|--------------------13-12-10----------10----||
--14------14------14------------|------------------------------9-11-13-------||
--------------14----------------|--------------------------------------------||
--------------------------------|--------------------------------------------||
--------------------------------|--------------------------------------------||




Duration Legend
---------------
W - whole
H - half
Q - quarter
E - 8th
S - 16th
T - 32nd
X - 64th
. - note dotted
|-n-|  - n-tuplets

VGJam Tabs Final Fantasy IX - "Jesters of the Moon"
Tabs database last modified Tuesday, 01-Nov-2016 19:14:53 UTC.
Copyright © 1999 - 2016 VideoGameJam.com. All rights reserved.